Oops, an error
Loading. Please wait.
We have an official Miss Murder tab made by UG professional guitarists. Check out the tab »
×
by AFI
3,457 views 1 this week
1 commentread comment
1 2 3 4 5
2 more votes to show rating
add to favorites
×
Save as Personal and add changes to this tab that will be seen only by you. Learn more ›
×
You can save this tab as Personal to edit and correct it or add notes. All changes will be seen only by you. Learn more »
launch autoscroll
font size
0
reset
how to read this tab
guitar tuner
backing track
0:00
0:00
edit
Autoscroll
slow
fast
+/-
esc
set tempo
stop
Author
Difficulty
this is 100% correct roosk8er@aol.com most of song with distortion. i have shown what 
dont have.All strings are tuned a half step down.

  intro
   e|---------------|
   b|---------------| it then jumps straight into the chorus
   g|----7-9--------|
   d|-7--5-7--------|
   a|-0-------------|
   E|---------------|

                                           p.h.* * * *
   e|-------------------------------------------------------|
   b|-------------------------------------------------------|
   g|-5-5--7-7--5-5--4-4-4-4--5-5--7-7--5-5--4--------------|
   d|-7-7--7-7--5-5--5-5-5-5--7-7--7-7--5-5--5--------------|
   a|-7-7--5-5--3-3--5-5-5-5--7-7--5-5--3-3--5--------------|
   E|-5-5--5-5--3-3--3-3-3-3--5-5--5-5--3-3--3-5-5-5-5------|

                          p.m.* * * *                  end of chorus
   e|------------------------------------------------------------|
   b|------------------------------------------------------------|
   g|-5-5--7-7--5-5--4-4-4-4--2-2-2-2-2-2-2-2---------/9-9-9-9-9-|
   d|-7-7--7-7--5-5--5-5-5-5--3-3-3-3-3-3-3-3--2-2-2-2/9-9-9-9-9-|
   a|-7-7--5-5--3-3--5-5-5-5--3-3-3-3-3-3-3-3--2-2-2-2/7-7-7-7-7-|
   E|-5-5--5-5--3-3--3-3-3-3--1-1-1-1-1-1-1-1--0-0-0-0/7-7-7-7-7-|


  pre verse
                        p.h.  * * * *
   e|--------------------------------|
   b|--------------------------------|
   g|-----9-9h10-10--9--9------------|
   d|-7-7--7-------10-10-10-5-7-7-7-7|x2
   a|--------------------------------|
   E|--------------------------------|
  No Guitar IN Verse

   pre chourus

   e|-----------------|   e|-------------------------------|
   b|-----------------|x2 b|-------------------------------|
   g|-----------------|   g|4---x-x-x-x-x-x-1---x-x-x-x-x-x|
   d|-7---x-x-x-x-x-x-|   d|5---x-x-x-x-x-x-2---x-x-x-x-x-x|
   a|-7-7-x-x-x-x-x-x-|   a|5-5-x-x-x-x-x-x-2-2-x-x-x-x-x-x|
   E|-5-5-x-x-x-x-x-x-|   E|3-3-x-x-x-x-x-x-0-0-x-x-x-x-x-x|

   e|-----------------|   e|-----------------|
   b|-----------------|x2 b|-----------------|
   g|-----------------|   g|4-4-x-x-4-4-4---1|
   d|-7---x-x-x-x-x-x-|   d|5-5-x-x-5-5-5-0-2|
   a|-7-7-x-x-x-x-x-x-|   a|5-5-x-x-5-5-5-0-2|
   E|-5-5-x-x-x-x-x-x-|   E|3-3-x-x-3-3-3-0-0|

 chorusx1

interlude
 p.h.* * * * *   * * * * * *     * * * * *     * * * * *
   e|--------------------------------------------------------|
   b|--------------------------------------------------------|
   g|-----------5-------------7-------------4-------------9--|
   d|7-7-7-7-7-7-7-7-7-7-7-7-7-7-5-5-5-5-5-5-5-7-7-7-7-7-7-7-|
   a|--------------------------------------------------------|
   E|--------------------------------------------------------|
 p.h.* * *
   e|-----------------------------------------------------|
   b|-----------------------------------------------------|
   g|-----------5-------------5-5h7------------4---9-9-9-9|
   d|7-7-7-7-7-7-7-7-7-7-7-7-7-7----5-5-5-5-5-5-5--9-9-9-9|
   a|----------------------------------------------7-7-7-7|
   E|----------------------------------------------7-7-7-7|

verse

  e|12-13-10-7~|
  b|13----12-9~|
  g|-----------|
  d|-----------|
  a|-----------|
  E|-----------|

pre-chourus x1
chourus x1
      bridge
   e|---------------------------------------------------|
   b|---------------------------------------------------|
   g|---9----8--------------------9----8----------------|
   d|-7--7----7-----------------7--7----7----10-10------|
   a|0-0--0-0--0-0-10-10-10-10-0-0--0-0--0-0-10-10------|
   E|--------------8--8--8--8----------------8--8-------|

   e|---------------------------------------------------|x2 clean
   b|---------------------------------------------------|x1 distorted
   g|---9----8------------------9-9---9-9-9-9-9-9-9-----|only play these
   d|-7--7----7-----------------7-7---7-7-7-7-7-7-7|7---| nine seven zeros
   a|0-0--0-0--0-0-10-10-10-10--0-0---0-0-0-0-0-0-0-----|on the third time.
   E|--------------8--8--8--8---------------------------|

e|----------------|
b|----------------|
g|----------------|
d|2-2-2-2-2-2-2-2-|
a|2-2-2-2-2-2-2-2-|
E|0-0-0-0-0-0-0-0-|


                    p.h.  * * * * * * * * * * * * *

   e|-------------------|--------------------------|
   b|-------------------|--------------------------|
   g|-5-5--7-7--5-5--4--|--------------------------|
   d|-7-7--7-7--5-5--5--|5-5-5-5-------------------|
   a|-7-7--5-5--3-3--5--|x-x-x-x-------------------|
   E|-5-5--5-5--3-3--3--|x-x-x-x-5-5-5-5-5-5-5-5-5-|


 chorus x2

i messed up only use the pinch harmonics and palm mute on the notes with the stars over 
not the letters

            
            
Suggest correction
Creating personal tab
Creating personal tab
You can edit any tab online and save it as your Personal.

You can edit, replace or remove any tab part or add personal notes – all changes will be seen only by you.

Personal tabs can be accessed anytime from any device, even offline.
Learn more »
Give kudos to tab author, rate the tab!
1 2 3 4 5
comments
print report bad tab
1 comment total.
0 reply
mayhem101 10 Nov 20, 2006 02:43 PM

not quite 100%, your interlude is wrong. and on the chorus he dosen't mute 5 on D he does an aritficial harmonic on the 5th fret on low E. Other than that the tab seems ok.

guest
You may want to rate the tab now too:
select rating
Wanna post a correction for this tab? Suggest correction