Oops, an error
Loading. Please wait.
We have an official Miss Murder tab made by UG professional guitarists. Check out the tab »
×
by AFI
4,169 views 9 this week
3 commentsread comments
1 2 3 4 5
x 8
add to favorites
×
Save as Personal and add changes to this tab that will be seen only by you. Learn more ›
×
You can save this tab as Personal to edit and correct it or add notes. All changes will be seen only by you. Learn more »
launch autoscroll
font size
0
reset
guitar tuner
backing track
0:00
0:00
edit
Autoscroll
slow
fast
+/-
esc
set tempo
stop
Author
all the strings are a half-step down. (low to high; Eb, Ab, Db, Gb)

Intro
Gb:-----------------|-----------------|
Db:-----7--------12\|----10\-----5----|
Ab:-----------------|-----------------| (repeat previous two bars twice)
Eb:-5-----5/10------|8-------3------3/|

Gb:-----------------|-----------------|-----------------|-----------------|
Db:-----7--------12\|----10\---5---5--|-----7--------12\|----10\---5------|
Ab:-----------------|-----------------|-----------------|-----------------|
Eb:-5-----5/10------|8-------3---3----|-5-----5/10------|8-------3---3-0--|

Gb:-----------------|-----------------|
Db:-----------------|-----------------|
Ab:---------3-3-5-5-|7-7-7-7-777-777--|
Eb:-1-1-1-1---------|-----------------|

Verse 1
Gb:---------------|-5555-5--------|--------------|          |--------------|
Db:--------7777-7-|--------7777-7-|-5555-55555-5-|(repeat   |--------------|
Ab:---------------|---------------|--------------|previous  |-777777777777\|
Eb:-5555-5--------|---------------|--------------|four bars)|--------------|

Gb:-----------------|-----------------|-----------------|-----------------|
Db:-----------------|-----------------|-----------------|-----------------|
Ab:-----------------|-----------------|-----------------|-----------------|
Eb:-5-5-5-5-5-5-5-5-|-5-5-5-5-5-5-5-5-|-3-3-3-3-3-3-3-3-|-0-0-0-0-0-0-033-|

Gb:-----------------|-----------------|-----------------|-----------------|
Db:-----------------|-----------------|-----------------|-----------------|
Ab:-----------------|-----------------|---------555-666-|-7-(mute)--------|
Eb:-5-5-5-5-5-5-5-5-|-5-5-5-5-5-5-5-5-|-3-3-3-3---------|-----------------|

Chorus 1
Gb:-----------------|-----------------|
Db:-----7--------12\|----10\-----5----|
Ab:-----------------|-----------------|
Eb:-5-----5/10------|8-------3------3/|

Gb:-----------------|-----------------|-----------------|-----------------|
Db:-----7--------12\|----10\---5---5--|-----7--------12\|----10\---5------|
Ab:-----------------|-----------------|-----------------|-----------------|
Eb:-5-----5/10------|8-------3---3----|-5-----5/10------|8-------3---3-0--|

Gb:-----------------|-----------------|
Db:-----------------|-----------------|
Ab:---------3-3-5-5-|7-7-7-7-777-777--|
Eb:-1-1-1-1---------|-----------------|

Interlude
Gb:-----------------|---------777-777-|-----------------|-----------------|
Db:---------777-777-|-999-999---------|-999-999-999-999-|-666-666-666-666-|
Ab:-----------------|-----------------|-----------------|-----------------|
Eb:-555-555---------|-----------------|-----------------|-----------------|

Gb:-----------------|---------777-777-|-----------------|-----------------|
Db:---------777-777-|-999-999---------|-999-999-999-999\|-666-645-6-(mute)|
Ab:-----------------|-----------------|-----------------|-----------------|
Eb:-555-555---------|-----------------|-----------------|-----------------|

Verse 2
Gb:-----------------|-----------------|-----------------|-----------------|
Db:-7---7-----------|-7---7-----------|-7---7-----------|-7---7-----------|
Ab:-0---0-(mute)----|-0---0-(mute)----|-0---0-(mute)----|-0---0-(mute)----|
Eb:-----------------|-----------------|-----------------|-----------------|

Gb:-----------------|-----------------|-----------------|-----------------|
Db:-----------------|-----------------|-----------------|-777-777-777-7\--|
Ab:-----------------|---------555-555-|-----------------|-----------------|
Eb:-555-555-555-555-|-777-777---------|-777-777-777-777/|-----------------|

Chorus 2
Gb:-----------------|-----------------|
Db:-----7--------12\|----10\-----5----|
Ab:-----------------|-----------------|
Eb:-5-----5/10------|8-------3------3/|

Gb:-----------------|-----------------|-----------------|-----------------|
Db:-----7--------12\|----10\---5---5--|-----7--------12\|----10\---5------|
Ab:-----------------|-----------------|-----------------|-----------------|
Eb:-5-----5/10------|8-------3---3----|-5-----5/10------|8-------3---3-0--|

Gb:-----------------|-----------------|
Db:-----------------|-----------------|
Ab:---------3-3-5-5-|7-7-7-7-777-777--|
Eb:-1-1-1-1---------|-----------------|

Interlude
Gb:-----------------|---------777-777-|-----------------|-----------------|
Db:---------777-777-|-999-999---------|-999-999-999-999-|-666-666-666-666-|
Ab:-----------------|-----------------|-----------------|-----------------|
Eb:-555-555---------|-----------------|-----------------|-----------------|

Gb:-----------------|---------777-777-|-----------------|-----------------|
Db:---------777-777-|-999-999---------|-999-999-999-999\|-666-645-6-(mute)|
Ab:-----------------|-----------------|-----------------|-----------------|
Eb:-555-555---------|-----------------|-----------------|-----------------|

Bridge
Gb:-----------------|-----------------|-----------------|-----------------|
Db:-----------------|-----------------|-----------------|-----------------|
Ab:-----------------|-----------------|-----------------|-----------------|
Eb:-5~~~~~~~~~~~~~~~|~~~~~~~~~~~~~~~~~|~~~~~~~~~~~~~~~~~|~~-------8---8\--|

Gb:-----------------|-----------------|-----------------|-----------------|
Db:-----------------|-----------------|-----------------|-----------------|
Ab:---------7-----7-|-6-----6---------|----------7-----7|-6---6-6---------|
Eb:-5-----5---------|---------8-----8\|-5-5----5--------|---------8---8\--|

Gb:-----------------|-----------------|-----------------|-----------------|
Db:-----------------|-----------------|-----------------|---------7-7-7-7-|
Ab:---------7-----7-|-6-----6---------|-------(mute)----|-----------------|
Eb:-5-----5---------|---------8-8-8\3-|-5---5-----------|---5-5-5---------|

Gb:-----------------|-----------------|-----------------|---------5---5---|
Db:-----------------|-----------------|-----------------|-----5-7---------|
Ab:---------7-7-7-7-|-6-6-6-6---------|---------7-7-7-7-|-6-6-------------|
Eb:-5---5-5---------|---------8-8-8-8-|-5-5-5-5---------|-----------------|

Gb:-----------------|-----------------|-----------------|
Db:-----------------|-----------------|-----------------|
Ab:---------7-7---7-|-6-6---6---------|-----------------|
Eb:-5-5-5-5---------|---------8-8-8\3-|-5---5\----------|

Gb:-----------------|-----------------|-----------------|-----------------|
Db:-----------------|-----------------|-----------------|-----------------|
Ab:-----------------|-777-555-333-----|-----------------|-------------7/--|
Eb:-0-0-0---0-0-0---|-------------333-|-5~~~~~~~~~~~~~~~|~~~~~~-----------|

Gb:-----------------|
Db:-----------------|
Ab:-12~~~~~~~~~~\---|
Eb:-----------------|

Chorus 3
Gb:-----------------|-----------------|
Db:-----7--------12\|----10\-----5----|
Ab:-----------------|-----------------|
Eb:-5-----5/10------|8-------3------3/|

Gb:-----------------|-----------------|-----------------|-----------------|
Db:-----7--------12\|----10\---5---5--|-----7--------12\|----10\---5------|
Ab:-----------------|-----------------|-----------------|-----------------|
Eb:-5-----5/10------|8-------3---3----|-5-----5/10------|8-------3---3-0--|

Gb:-----------------|-----------------|
Db:-----------------|-----------------|
Ab:---------3-3-5-5-|7-7-7-7-777-777--|
Eb:-1-1-1-1---------|-----------------|

Outro Chorus
Gb:-----------------|-----------------|
Db:-----7--------12\|----10\-----5----|
Ab:-----------------|-----------------|
Eb:-5-----5/10------|8-------3------3/|

Gb:-----------------|-----------------|-----------------|-----------------|
Db:-----7--------12\|----10\---5---5--|-----7--------12\|----10\---5------|
Ab:-----------------|-----------------|-----------------|-----------------|
Eb:-5-----5/10------|8-------3---3----|-5-----5/10------|8-------3---3-0--|

Gb:-----------------|-----------------|
Db:-----------------|-----------------|
Ab:---------3-3-5-5-|7-7-7-7-777-777--|
Eb:-1-1-1-1---------|-----------------|

Gb:-----------------|-----------------|-----------------|-----------------|
Db:-----7--------12\|----10\---5------|-----------------|-----------------|
Ab:-----------------|-----------------|---------3-3-5-5-|-777-555-333-----|
Eb:-5-----5/10------|8-------3---3-0--|-1-1-1-1---------|-------------333-|

Gb:-----------------|
Db:-----------------|
Ab:-------(mute)----|
Eb:-5---5-----------|

            
            
Suggest correction
Creating personal tab
Creating personal tab
You can edit any tab online and save it as your Personal.

You can edit, replace or remove any tab part or add personal notes – all changes will be seen only by you.

Personal tabs can be accessed anytime from any device, even offline.
Learn more »
comments
print report bad tab
3 comments total.
0 reply
ThreeHits 10 Jul 03, 2006 09:44 AM

Finally, someone tabbed this in the right tuning

-1 reply
DownbëloW 102 Jul 17, 2006 03:15 PM

YOu cheating son of a bitch. Fuck you.

0 reply
sevenfoldfan235 10 Aug 14, 2006 10:54 AM

you got the tuning right, and all the parts right

guest
You may want to rate the tab now too:
select rating
Wanna post a correction for this tab? Suggest correction