Oops, an error
Loading. Please wait.
We have an official Miss Murder tab made by UG professional guitarists. Check out the tab »
×
by AFI
16,265 views 9 this week
3 commentsread comments
1 2 3 4 5
2 more votes to show rating
add to favorites
×
Save as Personal and add changes to this tab that will be seen only by you. Learn more ›
×
You can save this tab as Personal to edit and correct it or add notes. All changes will be seen only by you. Learn more »
launch autoscroll
font size
0
reset
how to read this tab
guitar tuner
backing track
0:00
0:00
edit
Autoscroll
slow
fast
+/-
esc
set tempo
stop
Author
AFI - Miss Murder
Tabbed by Leila
Tuning: Eb Ab Db Gb Bb Eb (half step down)
Album: Decemberunderground

There was nothing SERIOUSLY wrong with any of the other Miss Murder tabs, but thought
try to fix what I thought was wrong. This may not be 100% right, but I can give at least a
accuracy rate.

On Youtube there is a clip of Jade giving tutorials for this song, so that’s where it’s
from. Thanks.


Intro (inverted power chord, minus the middle note)
|-------|
|-----5-|
|-------|
|---7---|
|-0-----|
|-------|


Before first chorus, two guitars are played over one another. You can play either the
and add in the middle note for that inverted power chord, or use the harmonic build-up.

Harmonic buildup: put your finger lightly on the E string and brush it all the way from
2nd fret to the 12th fret, and back down. You have to use a quick up and down motion,
its five strokes up and then five strokes down from the 12th fret. Make sure with those
strokes you hit each the 3rd, 5th, 7th, 9th, and 12th harmonics.

Chorus
|-5-5-5-5-3-3-3-3-|
|-5-5-5-5-3-3-3-3-|
|-5-5-7-7-5-5-3-3-|
|-7-7-7-7-5-5-5-5-|
|-7-7-5-5-3-3-5-5-|
|-5-5-5-5-3-3-3-3-|


|-5-5-5-5-3-3-3-------------|   |-----------------|
|-5-5-5-5-3-3-3-------------|   |-----------------|
|-5-5-7-7-5-5-3-------------|   |-----------------|
|-7-7-7-7-5-5-5--last chord-|   |---5*-5*-5*-5*---|
|-7-7-5-5-3-3-5---one time--|   |-----------------|
|-5-5-5-5-3-3-3-----only----|   |-----------------|


|-5-5-5-5-3-3-3-3-|    |-1-1-1-1-1-1---------7-7-7-|
|-5-5-5-5-3-3-3-3-|    |-1-1-1-1-1-1---------7-7-7-|
|-5-5-7-7-5-5-3-3-|    |-1-1-1-1-1-1---------9-9-9-|
|-7-7-7-7-5-5-5-5-|    |-3-3-3-3-3-3-2-2-2-2-9-9-9-|
|-7-7-5-5-3-3-5-5-|    |-3-3-3-3-3-3-2-2-2-2-7-7-7-|
|-5-5-5-5-3-3-3-3-|    |-1-1-1-1-1-1-0-0-0-0-7-7-7-|
                         . . .

First verse beginning
|-------------------------------------|
|-------------------------------------|
|-----9—9h10-10--9--9-----------------| (2x)
|---7--7-----------7--7--5—--5*-5*-5*-| Let last harmonic ring
|-0-----------------------------------| 2nd time
|-------------------------------------|
  .

Pre-chorus
|-------------------------------------|
|-------------------------------------|
|-------------------------------------|
|-77-77777-77-77777-55-55555-22-22222-| (all up and down picking)
|-77-77777-77-77777-55-55555-22-22222-|
|-55-55555-55-55555-33-33333-00-00000-|
     .....    .....    .....    .....

|-------------------------|
|-------------------------|
|-------------------------|
|-77-77777-77-77777-5-5-2-| ‘Behind!...’
|-77-77777-77-77777-5-5-2-|
|-55-55555-55-55555-3-3-0-|
     .....    .....


Chorus
|-5-5-5-5-3-3-3-3-|
|-5-5-5-5-3-3-3-3-|
|-5-5-7-7-5-5-3-3-|
|-7-7-7-7-5-5-5-5-|
|-7-7-5-5-3-3-5-5-|
|-5-5-5-5-3-3-3-3-|


|-5-5-5-5-3-3-3-------------|   |-----------------|
|-5-5-5-5-3-3-3-------------|   |-----------------|
|-5-5-7-7-5-5-3-------------|   |-----------------|
|-7-7-7-7-5-5-5--last chord-|   |---5*-5*-5*-5*---|
|-7-7-5-5-3-3-5---one time--|   |-----------------|
|-5-5-5-5-3-3-3-----only----|   |-----------------|


|-5-5-5-5-3-3-3-3-|    |-1-1-1-1-1-1---------7-7-7-|
|-5-5-5-5-3-3-3-3-|    |-1-1-1-1-1-1---------7-7-7-|
|-5-5-7-7-5-5-3-3-|    |-1-1-1-1-1-1---------9-9-9-|
|-7-7-7-7-5-5-5-5-|    |-3-3-3-3-3-3-2-2-2-2-9-9-9-|
|-7-7-5-5-3-3-5-5-|    |-3-3-3-3-3-3-2-2-2-2-7-7-7-|
|-5-5-5-5-3-3-3-3-|    |-1-1-1-1-1-1-0-0-0-0-7-7-7-|
                         . . .

Second verse beginning (with a swing rhythm)
|-----------------------------------------------------------| There is really not a
|-----------------------------------------------------------| separation between any
|-------5------------7------------4------------9------------| of these notes (just up
|-777777-77777-777777-77777-555555-55555--------------------| and down picking) but
|----------------------------------------777777-77777-------| it’s to help read and
|-----------------------------------------------------------| get a hang of the
  ............ ............ ............ .............  rhythm.

|-------------------------------------------------|
|-------------------------------------------------|
|-------5------------777999-------4----------9999-|
|-777777-77777-777777-------555555-55555-----9999-|
|----------------------------------------777-7777-|
|-------------------------------------------------|
  ............open up

|-12~~~~~~~~~~~~~~13~~~~~~10~~~~~~7-|
|-----------------------------------|
|-----------------------------------|
|-----------------------------------|
|-----------------------------------|
|-----------------------------------|


Pre-chorus
|-------------------------------------|
|-------------------------------------|
|-------------------------------------|
|-77-77777-77-77777-55-55555-22-22222-|
|-77-77777-77-77777-55-55555-22-22222-|
|-55-55555-55-55555-33-33333-00-00000-|
     .....    .....    .....    .....

|-------------------------|
|-------------------------|
|-------------------------|
|-77-77777-77-77777-5-5-2-| ‘Behind!...’
|-77-77777-77-77777-5-5-2-|
|-55-55555-55-55555-3-3-0-|
     .....    .....


Chorus
|-5-5-5-5-3-3-3-3-|
|-5-5-5-5-3-3-3-3-|
|-5-5-7-7-5-5-3-3-|
|-7-7-7-7-5-5-5-5-|
|-7-7-5-5-3-3-5-5-|
|-5-5-5-5-3-3-3-3-|


|-5-5-5-5-3-3-3-------------|   |-----------------|
|-5-5-5-5-3-3-3-------------|   |-----------------|
|-5-5-7-7-5-5-3-------------|   |-----------------|
|-7-7-7-7-5-5-5--last chord-|   |---5*-5*-5*-5*---|
|-7-7-5-5-3-3-5---one time--|   |-----------------|
|-5-5-5-5-3-3-3-----only----|   |-----------------|


|-5-5-5-5-3-3-3-3-|    |-1-1-1-1-1-1---------7-7-7-|
|-5-5-5-5-3-3-3-3-|    |-1-1-1-1-1-1---------7-7-7-|
|-5-5-7-7-5-5-3-3-|    |-1-1-1-1-1-1---------9-9-9-|
|-7-7-7-7-5-5-5-5-|    |-3-3-3-3-3-3-2-2-2-2-9-9-9-|
|-7-7-5-5-3-3-5-5-|    |-3-3-3-3-3-3-2-2-2-2-7-7-7-|
|-5-5-5-5-3-3-3-3-|    |-1-1-1-1-1-1-0-0-0-0-7-7-7-|
                         . . .

Tempo slows...
|--------------------------------------------------------------------|(2x)
|--------------------------------------------------------------------|
|---------9-------8-------------------------9-------8----------------|
|---7-------7---7---7---7-------------7-------7---7---7---7----------|
|-0---0-0-----0-------0---10-10-10--0---0-0-----0-------0------10-10-|
|--------------------------8--8--8------------------------------8--8-|

|----------------------------------------------------|
|----------------------------------------------------|
|---------9-------8----------------------------------|
|---7-------7---7---7---7-------------7-7---77777777-|
|-0---0-0-----0-------0---10-10-10-10-7-7---77777777-|
|--------------------------8--8--8--8—5-5---55555555-|
                                            ........

|--------------------------------------------------------------------|
|--------------------------------------------------------------------|
|---------9-------8-------------------------9-------8----------------|
|---7-------7---7---7---7-------------7-------7---7---7---7----------|
|-0---0-0-----0-------0---10-10-10--0---0-0-----0-------0------10-10-|
|--------------------------8--8--8------------------------------8--8-|


|-----------------------------------------|
|-----------------------------------------|
|---------9-------8-----------------------|
|---7-------7---7---7---7-------------7-7-|
|-0---0-0-----0-------0---10-10-10-10-7-7-|
|--------------------------8—-8--8--8-5-5-|
  .......................


Here a chord is supposed to be played 8 times, but I haven’t had time to figure out. You
watch the youtube, or play the same 755xxx chord that was just stopped on. 022xxx also
to work. Then this:

|-5-5-5-5-3-3-3-3-|
|-5-5-5-5-3-3-3-3-|
|-5-5-7-7-5-5-3-3-|
|-7-7-7-7-5-5-5-5-|
|-7-7-5-5-3-3-5-5-|
|-5-5-5-5-3-3-3-3-|


|-5-5-5-5-|
|-5-5-5-5-|
|-5-5-7-7-|
|-7-7-7-7-|
|-7-7-5-5-|
|-5-5-5-5-|

Here, before the second to last chorus, you repeat the harmonic build up going up and
the lowest E string once again.

Chorus
|-5-5-5-5-3-3-3-3-|
|-5-5-5-5-3-3-3-3-|
|-5-5-7-7-5-5-3-3-|
|-7-7-7-7-5-5-5-5-|
|-7-7-5-5-3-3-5-5-|
|-5-5-5-5-3-3-3-3-|


|-5-5-5-5-3-3-3-------------|   |-----------------|
|-5-5-5-5-3-3-3-------------|   |-----------------|
|-5-5-7-7-5-5-3-------------|   |-----------------|
|-7-7-7-7-5-5-5--last chord-|   |---5*-5*-5*-5*---|
|-7-7-5-5-3-3-5---one time--|   |-----------------|
|-5-5-5-5-3-3-3-----only----|   |-----------------|


|-5-5-5-5-3-3-3-3-|    |-1-1-1-1-1-1---------7-7-7-|
|-5-5-5-5-3-3-3-3-|    |-1-1-1-1-1-1---------7-7-7-|
|-5-5-7-7-5-5-3-3-|    |-1-1-1-1-1-1---------9-9-9-|
|-7-7-7-7-5-5-5-5-|    |-3-3-3-3-3-3-2-2-2-2-9-9-9-|
|-7-7-5-5-3-3-5-5-|    |-3-3-3-3-3-3-2-2-2-2-7-7-7-|
|-5-5-5-5-3-3-3-3-|    |-1-1-1-1-1-1-0-0-0-0-7-7-7-|
                         . . .

(2nd Guitar played over very last chorus)
|-------------------------------------------------------------------------|
|-------------------------------------------------------------------------|
|-14-14-14-14-14-14-14-14-16-16-16-16-16-16-16-16-17-17-17-17-17-17-17-17-|VERY
|--x--x--x--x--x--x--x--x--x--x--x--x--x--x--x--x--x--x--x--x--x--x--x--x-|FAST
|-12-12-12-12-12-12-12-12-14-14-14-14-14-14-14-14-15-15-15-15-15-15-15-15-|
|-------------------------------------------------------------------------|

|-------------------------|
|-------------------------|
|-12-12-12-12-13-13-13-13-|
|--x--x--x--x--x--x--x—-x-|
|-10-10-10-10-11-11-11-11-|
|-------------------------|


|-------------------------------------------------------------------------|
|-------------------------------------------------------------------------|
|-14-14-14-14-14-14-14-14-16-16-16-16-16-16-16-16-19-19-19-19-19-19-19-19-|
|--x--x--x--x--x--x--x--x--x--x--x--x--x--x--x--x--x—-x--x--x--x--x--x--x-|
|-12-12-12-12-12-12-12-12-14-14-14-14-14-14-14-14-17-17-17-17-17-17-17-17-|
|-------------------------------------------------------------------------|

|-------------------------|
|-------------------------|
|-17-17-17-17-17-17-17-17-|
|--x--x--x--x--x--x--x--x-|
|-15-15-15-15-15-15-15-15-|
|-------------------------|

|-------------------------------------------------------------------------|
|-------------------------------------------------------------------------|
|-14-14-14-14-14-14-14-14-16-16-16-16-16-16-16-16-17-17-17-17-17-17-17-17-|
|--x--x--x--x--x--x--x--x--x--x--x--x--x--x--x--x--x--x--x--x--x--x--x--x-|
|-12-12-12-12-12-12-12-12-14-14-14-14-14-14-14-14-15-15-15-15-15-15-15-15-|
|-------------------------------------------------------------------------|

|-------------------------|
|-------------------------|
|-12-12-12-12-13-13-13-13-|
|--x--x--x--x--x--x--x—-x-|
|-10-10-10-10-11-11-11-11-|
|-------------------------|


|-1-1-1-1-1-1---------7-7-7-|
|-1-1-1-1-1-1---------7-7-7-|
|-1-1-1-1-1-1---------9-9-9-|
|-3-3-3-3-3-3-2-2-2-2-9-9-9-|
|-3-3-3-3-3-3-2-2-2-2-7-7-7-|
|-1-1-1-1-1-1-0-0-0-0-7-7-7-|
  . . .


End (both guitar parts)
|-----|
|-----|
|-----|
|-7-7-|
|-7-7-|
|-5-5-|

Key
. = palm mute
h = hammer on
* = harmonic

Questions or comments? Reach me at randomlovesme@aim.com

            
            
Suggest correction
Creating personal tab
Creating personal tab
You can edit any tab online and save it as your Personal.

You can edit, replace or remove any tab part or add personal notes – all changes will be seen only by you.

Personal tabs can be accessed anytime from any device, even offline.
Learn more »
Give kudos to tab author, rate the tab!
1 2 3 4 5
comments
print report bad tab
3 comments total.
0 reply
DownbëloW 102 Dec 25, 2006 09:54 AM

4 stars, because you're dumb.

0 reply
chickrawker 216 Dec 28, 2007 09:20 AM

where's the video on youtube? i couldn't find it

0 reply
Akneesa 10 Jun 14, 2008 12:39 PM

this is a good tab

guest
You may want to rate the tab now too:
select rating
Wanna post a correction for this tab? Suggest correction