Oops, an error
Loading. Please wait.

Ok I Feel Better Now tab

version 1
version 1

Whole song

Interactive

by AFI
4,312 views 1 this week
2 commentsread comments
1 2 3 4 5
x 4
add to favorites
×
Save as Personal and add changes to this tab that will be seen only by you. Learn more ›
×
You can save this tab as Personal to edit and correct it or add notes. All changes will be seen only by you. Learn more »
launch autoscroll
font size
0
reset
how to read this tab
guitar tuner
edit
Autoscroll
slow
fast
+/-
esc
set tempo
stop
Ok, this is Ok, i Feel Better Now Pretty Easy Song To Play

Intro

[----------------------------]
[----------------------------]
[-9(x20)-7(x9)-10(x3)-7(x3)--]
[-10(x20)9(x9)-10(x3)-9(x3)--]
[----------------------------]
[----------------------------]
[----------------------------]

Then PLay
[--------------]
[--------------]
[9-------------] Pre-Coures
[7-(x6)-3------]
[0------3-(x9)-]
[-------1------]

After That Go Back To The Intro Pla That For a Few Times Then The Pre-Coures

Then Play This
[-----------------------------------------]
[-----------------------------------------]
[----------------------10---10----13------]
[----10---10-10--9--9-------------x---(x8)]
[-0-----0---0---0-0---0---0----0--11------]
[---------------------------------0-------]

Coures Time!
[----------------------------------------]
[----------------------------------------]
[-5---7----------------------------------]
[-5---7--7--3-----(x2)---3-9-10-14-------]  Find Out Every Thing Your Self
[-3---5--7--3------------x-x-x--x--------]
[--------5--1------------5-7-8--12-------]
On The second Time Don't Play The F Note

[-------------------------------]
[10~--10-8----------------------]
[----------7-9~--7~--7-5-9-7----]
[-----------------------------10]
[-------------------------------]
[-------------------------------]

Then Back To Intro 
...Then Yea Same Order
Then Play The Bridge
[---12---------12----------12---------12---------12--------12-----]
[-----13-(x2)-----13-(x2)----13-(x2)----13-(x2)----13(x2)----13---]
[14-----14---13------13--12-----12--11----11---10----10--12----12-]
[-----------------------------------------------------------------]
[-----------------------------------------------------------------]
[-----------------------------------------------------------------]
Then Yea Back To Chours
Finish HARD On Last Chours

Its Not The Best But Rate and Comment
Suggest correction
Creating personal tab
Creating personal tab
You can edit any tab online and save it as your Personal.

You can edit, replace or remove any tab part or add personal notes – all changes will be seen only by you.

Personal tabs can be accessed anytime from any device, even offline.
Learn more »
comments
print report bad tab
2 comments total.
0 reply
Azealzel 10 Dec 31, 2009 09:05 AM

I would rather play the chorus this way:

[------------------]
[------------------]
[-5---7------------]
[-5---7--7--3------] x1
[-3---5--7--3------]
[--------5--1------]

[--------------------------]
[--------------------------]
[-5---7--------------------]
[-5---7---3-9-10-14---3--5-] x1
[-3---5---x-x-x--x----3--5-]
[---------5-7-8--12---1--3-]

Listen to the song for the strumming pattern. Hold the last G5 and play once.

+1 reply
Azealzel 10 Dec 31, 2009 09:12 AM

Don't know how or if I can edit my comment...

I would rather play the chorus this way:

[------------------]
[------------------]
[-5---7------------]
[-5---7--7--3------] x1
[-3---5--7--3------]
[--------5--1------]

[-----------------------------]
[-----------------------------]
[-5---7-----------------------]
[-5---7---3-9-10-14---3-2-3-5-] x1
[-3---5---x-x-x--x----3-2-3-5-]
[---------5-7-8--12---1-0-1-3-]

Listen to the song for the strumming pattern. Hold the last G5 and play once.

guest
Wanna post a correction for this tab? Suggest correction