Oops, an error
Loading. Please wait.

On The Arrow Tab

version 1
version 1

Whole song

Interactive

by AFI
16,760 views 1 this week
8 commentsread comments
1 2 3 4 5
x 17
add to favorites
launch autoscroll
font size
0
reset
how to read this tab
guitar tuner
Autoscroll
slow
fast
+/-
esc
set tempo
stop
Help us to improve Ultimate-Guitar.com Take our survey!
×
Difficulty
novice
Artist - AFI
Album  - Decemberunderground (B-Side)
Year   - 2006
Tuning - Flat (Eb-Ab-Db-Gb-Bb-eb)
Tabbed
By     - Tom Ferrier


Intro
eb|---0---0---0---0---|
Bb|---0---1---3---3---|
Gb|---0---0---0---2---|
Db|---2---2---0---0---| X2
Ab|---2---3---2---0---|
Eb|---0---x---3---2---|


Verse
eb|---0---0---0---0---|         |---0---x---x------|
Bb|---0---1---3---3---|         |---0---x---x------|
Gb|---0---0---0---2---|         |---0---0---0------|
Db|---2---2---0---0---| X3 Then: |---2---4---4-----|
Ab|---2---3---2---0---|         |---3---5---5------|
Eb|---0---x---3---2---|         |---x---x---7------|


Second Verse
eb|---0---0---0---0---|         |---0---x---x---x------|
Bb|---0---1---3---3---|         |---0---x---x---x------|
Gb|---0---0---0---2---|         |---0---0---0---0------|
Db|---2---2---0---0---| X3 Then: |---2---4---4---4-----|
Ab|---2---3---2---0---|         |---3---5---5---5------|
Eb|---0---x---3---2---|         |---x---x---7---7------|


Chorus (Same chords, slightly different rhythm).
eb|---0---0---0---0---|
Bb|---0---1---3---3---|
Gb|---0---0---0---2---|
Db|---2---2---0---0---| X2
Ab|---2---3---2---0---|
Eb|---0---x---3---2---|


Post Chorus
eb|---0---7--------3---3-------3-----------5---|
Bb|---0------------5-----5-----3---3-------7---|
Gb|---0-----9------5-------5---4-----4-----7---|
Db|---2-------10---5-----------5-------5---7---|
Ab|---2------------3-----------5-----------5---|
Eb|---0------------x-----------3-----------x---|


Second Verse
eb|---0---0---0---0---|         |---0---x---x---x------|
Bb|---0---1---3---3---|         |---0---x---x---x------|
Gb|---0---0---0---2---|         |---0---0---0---0------|
Db|---2---2---0---0---| X3 Then: |---2---4---4---4-----|
Ab|---2---3---2---0---|         |---3---5---5---5------|
Eb|---0---x---3---2---|         |---x---x---7---7------|


Chorus
eb|---0---0---0---0---|
Bb|---0---1---3---3---|
Gb|---0---0---0---2---|
Db|---2---2---0---0---| X4
Ab|---2---3---2---0---|
Eb|---0---x---3---2---|

Outro (Same strumming as verses).
eb|---0---0---0---0---|
Bb|---0---1---3---3---|
Gb|---0---0---0---2---|
Db|---2---2---0---0---| X4
Ab|---2---3---2---0---|
Eb|---0---x---3---2---|

(Lead notes played during the outro)
eb|----------------|
Bb|---12-----------|
Gb|-------14--12---|
Db|----------------|
Ab|----------------|
Eb|----------------|

Fades out strumming the same pattern...
Suggest correction
comments
print report bad tab
8 comments total. Showing first comments.
0 reply
AutoImagine 62 Jun 14, 2006 12:49 AM

Perfect. Thanks! =) It's an amazing song!

0 reply
guitarpirate 10 Jun 14, 2006 02:13 PM

This tab is freakin perfect
tab some other afi plz

0 reply
sargasm 230 Jun 19, 2006 06:03 PM

The 3rd chord is 320003, not 32003x

Also, the last chorus only repeats 3 times.

Otherwise, this is perfect.

guest
You may want to rate the tab now too:
select rating
Wanna post a correction for this tab? Suggest correction