Oops, an error
Loading. Please wait.

Silver And Cold bass

version 3
version 3

Whole song

by AFI
579 views 1 this week
no commentswrite comment
1 2 3 4 5
3 more votes to show rating
add to favorites
×
Save as Personal and add changes to this tab that will be seen only by you. Learn more ›
×
You can save this tab as Personal to edit and correct it or add notes. All changes will be seen only by you. Learn more »
launch autoscroll
font size
0
reset
guitar tuner
edit
Autoscroll
slow
fast
+/-
esc
set tempo
stop
Author
Ok, so i got tired of printing off tabs that sounded wrong for this song, it sounded like the tune
was off, so i have decided to tab it out myself and being as this is my first tab i hope it sounds
right to other ppl, it sounds right to me, to view the video of how it sounds check out
my http://www.youtube.com/user/ladiesbass

INTRO:
G|--------------------------------------------------------------:
D|--------------------------------------------------------------:
A|--------------------------------------------------------------:
E|--6-6-6-6-6-6-4-4-4-4-4-4-2-2-2-2-2-2-4-4-4-4-4-4-6-6-6-6-6-6-:

G|------------------------------:
D|------------------------------:
A|--3-3-3-3-3-3-4-4-4-4-4-4-----:
E|---------------------------0r-:

VERSE I:
G|-----------------------------------:
D|-----------------------------------:
A|-----------------------------------:
E|-6-2-4-6-6-4-2-0--6-2-4-6-6-4-2-0r-:

VERSE II:
G|--------------------------------------------------------------:
D|--------------------------------------------------------------:
A|--------------------------------------------------------------:
E|-6-6-6-2-2-2-4-4-4-6-6-6-6-6-6-4-4-4-2-2-2-0-0-0-6-6-6-2-2-2--:

G|-------------------------------------------:
D|-------------------------------------------:
A|-------------------------------------------:
E|-4-4-4-6-6-6-6-6-6-4-4-4-2-2-2-2-2-2-2-2-2-:

CHORUS:
G|--------------------------------------------------------------:
D|--------------------------------------1-1-1-1-1-1-1-1-1-1-1-1-:
A|-2-2-2-2-2-2-------------4-4-4-4-4-4--------------------------:
E|-------------2-2-2-2-2-2--------------------------------------:

G|--------------------------------------------------------------:
D|-------------------------------------1-1-1-1-1-1--------------:
A|-2-2-2-2-2-2-4-4-4-4-4-4-1-1-1-1-1-1-------------2-2-2-2-2-2--:
E|--------------------------------------------------------------:

G|---------------------------------------------------------------------:
D|-------------1-1-1-1-1-1-1-1-1-1-1-1---------------------------------:
A|-4-4-4-4-4-4-------------------------4-4-4-4-4-4-2-2-2-2-2-2-(1r)----:
E|---------------------------------------------------------------------:

* (1r) Play this only right before the GUITAR SOLO!

VERSE III:
G|--------------------------------------------------------------:
D|--------------------------------------------------------------:
A|--------------------------------------------------------------:
E|-6-6-2-2-4-4-6-6-6-6-4-4-2-2-0-0-6-6-2-2-4-4-6-6-4-4-4-4-4-4--:

G|-----------------:
D|-----------------:
A|-----------------:
E|-2-2-2-2-2-2-2-2-:

GUITAR SOLO (Same as verse I)
G|-----------------------------------------------------------------:
D|-----------------------------------------------------------------:
A|-----------------------------------------------------------------:
E|-6-2-4-6-6-4-2-0-6-2-4-6-6-4-2-(2-2-2-2-2-2)---------------------:

POST-CHORUS:
G|-------------:
D|-------------:
A|-------------:
E|-2-2-2-2-2-2-:

OUTRO:
G|----------------------------------------------------------------:
D|----------------------------------------------------------------:
A|-2-2-2-2-2-2----------------------------------------------------:
E|-------------2-2-2-2-2-2-4-4-4-4-4-4-4-4-pm---------------------:

INTRO
VERSE I
VERSE II - 2X
CHORUS
VERSE I
VERSE II - 2X
VERSE III
CHORUS
GUITAR SOLO
POST-CHORUS
CHORUS
POST-CHORUS
CHORUS
OUTRO

            
            
Suggest correction
Creating personal tab
Creating personal tab
You can edit any tab online and save it as your Personal.

You can edit, replace or remove any tab part or add personal notes – all changes will be seen only by you.

Personal tabs can be accessed anytime from any device, even offline.
Learn more »
Give kudos to tab author, rate the tab!
1 2 3 4 5
comments
print report bad tab
guest
You may want to rate the tab now too:
select rating
Wanna post a correction for this tab? Suggest correction