Oops, an error
Loading. Please wait.

Silver And Cold bass

version 4
version 4

Whole song

by AFI
342 views 3 this week
no commentswrite comment
1 2 3 4 5
2 more votes to show rating
add to favorites
×
Save as Personal and add changes to this tab that will be seen only by you. Learn more ›
×
You can save this tab as Personal to edit and correct it or add notes. All changes will be seen only by you. Learn more »
launch autoscroll
font size
0
reset
guitar tuner
edit
Autoscroll
slow
fast
+/-
esc
set tempo
stop
Ok, so i got tired of printing off tabs that sounded wrong for this song, it sounded like the tune
was off, so i have decided to tab it out myself and being as this is my first tab i hope it sounds
right to other ppl, it sounds right to me, to view the video of how it sounds check out
my http://www.youtube.com/user/ladiesbass

(I have discovered that mr hunter plays this song in drop d. so here is the redo-update
 of this song. Though it will be in 5 string. SEE BELOW FOR 4 STRING VERSION)

INTRO: 1x
G|--------------------------------------------------------------|
D|--------------------------------------------------------------|
A|-------------------------------------333333-444456------------|
E|--666666-444444-222222-444444-666666--------------------------|
D|---------------------------------------------------1r---------|

VERSE I: 1x
G|-----------------------------------|
D|-----------------------------------|
A|-----------------------------------|
E|-6-2-4-6-6-4-2----6-2-4-6-6-4-2----|
D|---------------1----------------1r-|

VERSE II: 1x
G|--------------------------------------------------------------------|
D|--------------------------------------------------------------------|
A|--------------------------------------------------------------------|
E|-666-222-444-666-666-444-222------666-222-444-666-666-444-222-------|
D|-----------------------------111-----------------------------111111-|

CHORUS: 1x
G|------------------------------------------------------------------------|
D|----------------------111111-111111----------------------111111---------|
A|-222222--------444444---------------222222-444444-111111--------222222--|
E|--------222222----------------------------------------------------------|
D|------------------------------------------------------------------------|

G|--------------------------------------------|
D|----------111111-111111---------------------|
A|--444444---------------444444-2222222-(1r)*-|
E|--------------------------------------------|
D|--------------------------------------------|

*Play before Guitar solo

VERSE I: 1x
VERSE II: 1x

VERSE III: 1x
G|----------------------------------------------------|
D|----------------------------------------------------|
A|----------------------------------------------------|
E|-66-22-44-66-66-44-22---66-22-44-66-6r-4r-2r--------|
D|---------------------11----------------------111111-|

CHORUS: 1x

GUITAR SOLO (Same as verse I)

G|------------------------------------------------------------------------|
D|------------------------------------------------------------------------|
A|------------------------------------------------------------------------|
E|-666r-66-666r-66-666r-66 66246642--6246642r-(222222-222222-222222-222)--|
D|--------------------------------1---------------------------------------|

POST-CHORUS:
G|-------------|
D|-------------|
A|-------------|
E|-2-2-2-2-2-2-|
D|-------------|

CHORUS: 1x
POST-CHORUS: 1x 
CHORUS: 1x

OUTRO:
G|----------------------------------------------------------------|
D|----------------------------------------------------------------|
A|-2-2-2-2-2-2----------------------------------------------------|
E|-------------2-2-2-2-2-2-4-4-4-4-4-4-4-4x-----------------------|
D|----------------------------------------------------------------|

OR for a 4 string bass it would be like this:

INTRO: 1x
G|--------------------------------------------------------------|
D|--------------------------------------------------------------|
A|------------------------------------333333-444456-------------|
D|-888888-666666-444444-666666-888888---------------1r----------|

VERSE I: 1x
G|------------------------------------|
D|------------------------------------|
A|------------------------------------|
D|-8-4-6-8-8-6-4-1-8-4-6-8-8-6-4-1r---|

VERSE II: 1x
G|------------------------------------|
D|------------------------------------|
A|------------------------------------|
D|-888-444-666-888-888-666-444-111----|

G|----------------------------------------------|
D|----------------------------------------------|
A|----------------------------------------------|
D|-888-444-666-888-888-666-444-111111-111111----|

CHORUS: 1x
G|----------------------------------------------------------------|
D|----------------------111111-111111----------------------111111-|
A|-222222--------444444---------------222222-444444-111111--------|
D|--------444444--------------------------------------------------|

G|--------------------------------------------------------------|
D|--------------111111-111111-----------------------------------|
A|-222222-444444--------------444444-222222-(1r)*---------------|
D|--------------------------------------------------------------|

*Let ring before the Guitar solo.
VERSE I: 1x
VERSE II: 1x

VERSE III: 1x
G|--------------------------------------------------------------|
D|--------------------------------------------------------------|
A|--------------------------------------------------------------|
D|-88-44-66-88-88-66-44-11-88-44-66-88-8r-6r-4r-111111111111----|

CHORUS: 1x

GUITAR SOLO:
G|--------------------------------------------------------------------------|
D|--------------------------------------------------------------------------|
A|--------------------------------------------------------------------------|
D|-888r-88-888r-88-888r-88 88846886418468864r-444444-444444-444444-444------|

POST-CHORUS:
G|----------|
D|----------|
A|----------|
D|--444444--|

CHORUS: 1x 
POST-CHORUS: 1x
CHORUS: 1x
 
ENDING:
G|------------------------|
D|------------------------|
A|-22222------------------|
D|-------44444-666666x----|

| r let ring
| /  slide up
| \  slide down
| h  hammer-on
| p  pull-off
| ~  vibrato
| +  harmonic
| x  Mute note

            
            
Suggest correction
Creating personal tab
Creating personal tab
You can edit any tab online and save it as your Personal.

You can edit, replace or remove any tab part or add personal notes – all changes will be seen only by you.

Personal tabs can be accessed anytime from any device, even offline.
Learn more »
Give kudos to tab author, rate the tab!
1 2 3 4 5
comments
print report bad tab
guest
You may want to rate the tab now too:
select rating
Wanna post a correction for this tab? Suggest correction