Oops, an error
Loading. Please wait.

The Boy Who Destroyed The World tab

version 3
version 3

Whole song

Interactive

by AFI
2,773 views 1 this week
2 commentsread comments
1 2 3 4 5
2 more votes to show rating
add to favorites
×
Save as Personal and add changes to this tab that will be seen only by you. Learn more ›
×
You can save this tab as Personal to edit and correct it or add notes. All changes will be seen only by you. Learn more »
launch autoscroll
font size
0
reset
how to read this tab
guitar tuner
edit
Autoscroll
slow
fast
+/-
esc
set tempo
stop
Author
THE BOY WHO DESTROYED THE WORLD - AFI

tabbed by Crystal (-kinslayer-)

Tablature Key:
* - Natural Harmonics
/ - Slide up
\ - Slide down
/// - pick slide
~ - Sustain
b - bend
x's are open notes, not muted or harmonics
. - palm mute

Intro
e|--7-5/7-7-8--7-7/-8/10--3-5-5-|
B|--7-5/7-7-8--7-7/-8/10--3-7-5-|
G|--7-6/7-7-9--7-7/-9/11--4-7-6-|
D|--9-7/9-9-10-9-9/10/12--5-7-7-|
A|--9-7/9-9-10-9-9/10/12--5-5-7-|
E|--7-5/7-7-8--7-7/-8/10--3-5-5-|

e|--7-5/7-7-8--7-7/-8/10---------------------------------------|
B|--7-5/7-7-8--7-7/-8/10------------------------------12b------|
G|--7-6/7-7-9--7-7/-9/11--12-12-12/14-14-11\9/11\9-14-14b------|
D|--9-7/9-9-10-9-9/10/12-----------------------------------\\--|
A|--9-7/9-9-10-9-9/10/12--10-10-10/12-12-------------------\\--|
E|--7-5/7-7-8--7-7/-8/10-----------------------------------\\--|


Verse
e|--7---7-7-10--10---7---7-7--3-5-5--|
B|--7---7-8-12--10---7---7-8--3-7-5--|
G|--7---7-7-12--11---7---7-7--4-7-6--|
D|--9---9-9-12--12---9---9-9--5-7-7--|
A|--9-------10--12---9--------5-5-7--|
E|--7-------10--10---7--------3-5-5--|

e|--7---7-7-10--10---7---7-7-7-7--------|
B|--7---7-8-12--10---7---7-8-8-7--------|
G|--7---7-7-12--11---7---7-7-7-7--------|
D|--9---9-9-12--12---9---9-9-9-9--\\\---|
A|--9-------10--12---9------------\\\---|
E|--7-------10--10---7------------\\\---|

e|--7---7-7-10--10---7---7-7--3-5-5--|
B|--7---7-8-12--10---7---7-8--3-7-5--|
G|--7---7-7-12--11---7---7-7--4-7-6--|
D|--9---9-9-12--12---9---9-9--5-7-7--|
A|--9-------10--12---9--------5-5-7--|
E|--7-------10--10---7--------3-5-5--|

e|--7---7-7-10--10-----------------------------|
B|--7---7-8-12--10-----------------------------|
G|--7---7-7-12--11-------------7~-9-7----------|
D|--9---9-9-12--12--2---4-4-4--9~----9-----\\--|
A|--9-------10--12--2---4-4-4--9~-----9----\\--|
E|--7-------10--10--0---2-2-0--7~------7~--\\--|

Chorus
e|--7-5/7-7-8--7-7/-8/10--3-5-5-|
B|--7-5/7-7-8--7-7/-8/10--3-7-5-|
G|--7-6/7-7-9--7-7/-9/11--4-7-6-|
D|--9-7/9-9-10-9-9/10/12--5-7-7-|
A|--9-7/9-9-10-9-9/10/12--5-5-7-|
E|--7-5/7-7-8--7-7/-8/10--3-5-5-|

e|--7-5/7-7-8--7-7/-8/10--3-5-5------------------|
B|--7-5/7-7-8--7-7/-8/10--3-7-5------------------|
G|--7-6/7-7-9--7-7/-9/11--4-7-6--12-14-11-9------|
D|--9-7/9-9-10-9-9/10/12--5-7-7------------------|
A|--9-7/9-9-10-9-9/10/12--5-5-7--10-12-9--7------|
E|--7-5/7-7-8--7-7/-8/10--3-5-5------------------|

Verse
e|--7---7-7-10--10---7---7-7--3-5-5--|
B|--7---7-8-12--10---7---7-8--3-7-5--|
G|--7---7-7-12--11---7---7-7--4-7-6--|
D|--9---9-9-12--12---9---9-9--5-7-7--|
A|--9-------10--12---9--------5-5-7--|
E|--7-------10--10---7--------3-5-5--|

e|--7---7-7-10--10---7---7-7-7-7--------|
B|--7---7-8-12--10---7---7-8-8-7--------|
G|--7---7-7-12--11---7---7-7-7-7--------|
D|--9---9-9-12--12---9---9-9-9-9--\\\---|
A|--9-------10--12---9------------\\\---|
E|--7-------10--10---7------------\\\---|

e|--7---7-7-10--10---7---7-7--3-5-5--|
B|--7---7-8-12--10---7---7-8--3-7-5--|
G|--7---7-7-12--11---7---7-7--4-7-6--|
D|--9---9-9-12--12---9---9-9--5-7-7--|
A|--9-------10--12---9--------5-5-7--|
E|--7-------10--10---7--------3-5-5--|

e|--7---7-7-10--10--------------------------------|
B|--7---7-8-12--10--------------------------------|
G|--7---7-7-12--11----------------7~-9-7----------|
D|--9---9-9-12--12--2222---4-4-4--9~----9-----\\--|
A|--9-------10--12--2222---4-4-4--9~-----9----\\--|
E|--7-------10--10--0000---2-2-0--7~------7~--\\--|
                    ... <-- Slowly come out of palm mute

Chorus
e|--7-5/7-7-8--7-7/-8/10--3-5-5-|
B|--7-5/7-7-8--7-7/-8/10--3-7-5-|
G|--7-6/7-7-9--7-7/-9/11--4-7-6-|
D|--9-7/9-9-10-9-9/10/12--5-7-7-|
A|--9-7/9-9-10-9-9/10/12--5-5-7-|
E|--7-5/7-7-8--7-7/-8/10--3-5-5-|

e|--7-5/7-7-8--7-7/-8/10--3-5-5-|
B|--7-5/7-7-8--7-7/-8/10--3-7-5-|
G|--7-6/7-7-9--7-7/-9/11--4-7-6-|
D|--9-7/9-9-10-9-9/10/12--5-7-7-|
A|--9-7/9-9-10-9-9/10/12--5-5-7-|
E|--7-5/7-7-8--7-7/-8/10--3-5-5-|

e|--7-5/7-7-8--7-7/-8/10--------------|
B|--7-5/7-7-8--7-7/-8/10--------------|
G|--7-6/7-7-9--7-7/-9/11--12-12-14-11-|
D|--9-7/9-9-10-9-9/10/12--------------|
A|--9-7/9-9-10-9-9/10/12--10-10-12--9-|
E|--7-5/7-7-8--7-7/-8/10--------------|

e|--7-5/7-7-8--7-7/-8/10--3-5-5-------------------|
B|--7-5/7-7-8--7-7/-8/10--3-7-5-----------8-------|
G|--7-6/7-7-9--7-7/-9/11--4-7-6---9-----9---9-----|
D|--9-7/9-9-10-9-9/10/12--5-7-7-------------------|
A|--9-7/9-9-10-9-9/10/12--5-5-7---7---------------|
E|--7-5/7-7-8--7-7/-8/10--3-5-5---x-----------x---|

Bridge
e|------------------------------------------------------|
B|------------------------------------------------------|
G|------------------------------------------------------|
D|------------------------------------------------------|
A|-7-----10----9----10-------7-----10----9----10--------|
E|-0-000--0-00-0-00--0-00000-0-000--0-00-0-00--0-00000--|
   . ...  . .. . ..  . ..... . ...  . .. . ..  . .....

e|--------------------------------------------------|
B|--------------------------------------------------|
G|-9----9/11-11/12-11-9----9----9/11-11/12-14-12----|
D|-----------------------------------------------12-|
A|-7----7/9---9/10--9-7----7----7/9---9/10-12-10----|
E|-x-xx-x-x---x--x--x-x-xx-x-xx-x-x---x--x--x--x----|
     ..                 ..   ..
e|-------------------------------------------------------|
B|-------------------------------------------------------|
G|-9----9/11-11/12-11-9----9----9/11-11/12-14-1212-1111--|
D|-------------------------------------------------------|
A|-7----7/9---9/10--9-7----7----7/9---9/10-12-1010--9-9--|
E|-x-xx-x-x---x--x--x-x-xx-x-xx-x-x---x--x--x--x-x--x-x--|
     ..                 ..   ..
e|--------------------------------------------------|
B|--------------------------------------------------|
G|-9----9/11-11/12-11-9----9----9/11-11/12-14-12----|
D|-----------------------------------------------12-|
A|-7----7/9---9/10--9-7----7----7/9---9/10-12-10----|
E|-x-xx-x-x---x--x--x-x-xx-x-xx-x-x---x--x--x--x----|
     ..                 ..   ..
e|------------------------------------------------------------|
B|------------------------------------------------------------|
G|-9----9/11-11/12-11-9----9999-111111-121212-141414141414----|
D|------------------------------------------------------------|
A|-7----7/9---9/10--9-7----7777--9-9-9-101010-121212121212----|
E|-x-xx-x-x---x--x--x-x-xx-xxxx--x-x-x--x-x-x--x-x-x-x-x-x----|

Outro
e|------------------------------------------------------|
B|------------------------------------------------------|
G|-7/9-999-10\9-99-9999999-7/9-99-111111-12-------------|
D|--------------------------------------------5*----5-5-|
A|-5/7-777--8\7-77-7777777-5/7-77--9-9-9-10-5*--5*--5-5-|
E|-x-x-xxx--x-x-xx-xxxxxxx-x-x-xx--x-x-x--x---------3-3-|

e|------------------------------------------------------|
B|------------------------------------------------------|
G|-7/9-999-10\9-99-9999999-7/9-99-111111-12-------------|
D|--------------------------------------------5*----5-5-|
A|-5/7-777--8\7-77-7777777-5/7-77--9-9-9-10-5*--5*--5-5-|
E|-x-x-xxx--x-x-xx-xxxxxxx-x-x-xx--x-x-x--x---------3-3-|

e|------------------------------------------------------|
B|------------------------------------------------------|
G|-7/9-999-10\9-99-9999999-7/9-99-111111-12-------------|
D|--------------------------------------------5*----5-5-|
A|-5/7-777--8\7-77-7777777-5/7-77--9-9-9-10-5*--5*--5-5-|
E|-x-x-xxx--x-x-xx-xxxxxxx-x-x-xx--x-x-x--x---------3-3-|

e|------------------------------------------------------|
B|------------------------------------------------------|
G|-7/9-999-10\9-99-9999999-7/9-99-111111-12-------------|
D|--------------------------------------------5*----5-5-|
A|-5/7-777--8\7-77-7777777-5/7-77--9-9-9-10-5*--5*--5-5-|
E|-x-x-xxx--x-x-xx-xxxxxxx-x-x-xx--x-x-x--x---------3-3-|

Ending:
e|--------------12*~---|
B|-----------12*~------|
G|--------12*~---------|
D|-2~~-----------------|
A|-2~~-----------------|
E|-0~~-----------------|




            
            
Suggest correction
Creating personal tab
Creating personal tab
You can edit any tab online and save it as your Personal.

You can edit, replace or remove any tab part or add personal notes – all changes will be seen only by you.

Personal tabs can be accessed anytime from any device, even offline.
Learn more »
Give kudos to tab author, rate the tab!
1 2 3 4 5
comments
print report bad tab
2 comments total.
0 reply
ruletheneck 324 Apr 02, 2010 01:47 AM

nice tab! :D although i'm pretty sure that there aren't any full chords in the song, mainly EAD power chords ;) but you nailed the bridge/third verse!

0 reply
Dustin23 10 Jun 05, 2010 05:49 AM

^^ wrong... its all barre chords, that's all jade uses lol (with the exception of some songs)

guest
You may want to rate the tab now too:
select rating
Wanna post a correction for this tab? Suggest correction