Oops, an error
Loading. Please wait.

This Celluloid Dream bass

version 2
version 2

Whole song

Interactive

by AFI
707 views 1 this week
no commentswrite comment
1 2 3 4 5
3 more votes to show rating
add to favorites
×
Save as Personal and add changes to this tab that will be seen only by you. Learn more ›
×
You can save this tab as Personal to edit and correct it or add notes. All changes will be seen only by you. Learn more »
launch autoscroll
font size
0
reset
guitar tuner
edit
Autoscroll
slow
fast
+/-
esc
set tempo
stop
Author
This Celluloid Dream
AFI
Sing the Sorrow

Intro
G|--------------------------------|
D|--------------------------------|
A|--------------------------------|
E|-----------06-------------------|

G|-------------------------|
D|-------------------------|
A|--1111-54-2222-54--------| x8
E|-------------------------|
Verse 1
G|---------------|
D|---------------|
A|--2222---------|x4
E|-------3333----|

G|-----------------------------------|
D|-----------------------------------|
A|--1111-54-2222-54------------------|x2
E|-----------------------------------|

G|----------------|
D|----------------|
A|--2222----------|
E|-------3333-----|x4 (on the last time hold the last note)

G|-------------------------------------------------------------------|
D|-------------------------------------------------------------------|
A|-------------------------------------------------------------------|
E|--55555555-33333333-111111111111-3333-1111-3333-55555555-77777777--|

G|-----------------------------------|
D|-----------------------------------|
A|-------4444-1111-00000000----------|
E|--2222-----------------------------|

Chorus
G|-----------------------------------|
D|-----------------------------------|
A|--66-44-22-0000--------------------|x4
E|-----------------------------------|

Verse 2
G|-----------------------------------|
D|-----------------------------------|
A|--1111-54-2222-54------------------|x2
E|-----------------------------------|

G|---------------|
D|---------------|
A|--2222---------|x4 (on last time hold last note)
E|-------3333----|

G|----------------------------------------|
D|----------------------------------------|
A|-------4444-1111-00000000---------------|x4 (On last time hold last
E|--2222----------------------------------|    time hold last note)

Chorus
G|-----------------------------------|
D|-----------------------------------|
A|--66-44-22-0000--------------------|x4
E|-----------------------------------|

Bridge
G|-----------------------------------|
D|-----------------------------------|
A|------------8\---------------------|   (On the 8 slide all the way
E|--06----09-------------------------|    down the neck to 1)

G|-------------|
D|-------------|
A|--0429-0424--|x16 (on last repeat ritardando (rit./rol.)/slow down)
E|-------------|

G|----------------|
D|----------------|
A|--66666666------| (Get Louder)
E|----------------|
Cresc. <

Chorus
G|-----------------------------------|
D|-----------------------------------|
A|--66-44-22-0000--------------------|x9
E|-----------------------------------|

Outro
E|------------|
A|------------|
D|--22-1~-----| (let the last note ring)
G|------------|

\ = slide up the neck
~ = let it ring
Hold the note = keep playing
< = Cresc./Get Louder

e-mail me at Fire37mm@AOL.com for corrections.
Suggest correction
Creating personal tab
Creating personal tab
You can edit any tab online and save it as your Personal.

You can edit, replace or remove any tab part or add personal notes – all changes will be seen only by you.

Personal tabs can be accessed anytime from any device, even offline.
Learn more »
Give kudos to tab author, rate the tab!
1 2 3 4 5
comments
print report bad tab
guest
You may want to rate the tab now too:
select rating
Wanna post a correction for this tab? Suggest correction