Oops, an error
Loading. Please wait.

Very Proud Of Ya Bass Tab

by AFI
1,712 views 1 this week
no commentswrite comment
1 2 3 4 5
please rate
add to favorites
launch autoscroll
font size
0
reset
guitar tuner
Autoscroll
slow
fast
+/-
esc
set tempo
stop
Help us to improve Ultimate-Guitar.com Take our survey!
×
Author
1: He Who Laughs Last...
2: File 13
3: Wake-Up Call
4: Cult Status
5: Perfect Fit
6: Advances in Modern Technology
7: Theory of Revolution
8: This Secret Ninja
9: Soap-Box Derby
10: Aspirin Free
11: Fishbowl
12: Charles Atlas
13: Crop Tub
14: Consult My Lover
15: Take The Test
16: Two of a Kind
17: Shatty Fatmas
18: Yurf Rendenmein
19: Cruise Control
20: Modern Epic

1: HE WHO LAUGHS LAST...

G|------------------------------------------------------------------|
D|------------------------------------------------------------------|
A|-55555555--33333333--222222222222---------------------------------|
E|------------------------------------------------------------------|


G|------------------------------------------------------------------|
D|------------------------------------------------------------------|
A|-5555-8888-10-10-10-10-3333-5555-8888-10-10-10-10-33-5555-8888-10-10-10-|
E|-----------------------------------------------------------------|

G|-----------------------------------------------------------------|
D|-----------------------------------------------------------------|
A|-----------------------------------------------------------------|
E|-10-10-10-10-10--5555--8888--10-10-10-10--3333-------------------|


G|--------------------------------------|---------------------|
D|--------------------------------------|---------------------|
A|-55555555-----------------------------|----------------------00-|
E|------------------5555--3333----------|----0-2-2--0-2-2--00-------|


G|------------------------------------------------------------------|
D|------------------------------------------------------------------|
A|-55555555--7--88888888--55555555--7-------------------------------|
E|---------------------------------------------------------88888888-|

G|------------------------------------------------------------------|
D|-9-9-8-8-7--9-9-8-8-7--9-9-8-8-7--9-8-7---------------------------|
A|-------------------------------------------------------10---------|
E|------------------------------------------------------------------|


2: FILE 13

Verse
G|---------------------------------------------------------------|
D|---------------------------------------------------------------|
A|-------------------------------------------------------------5-|
E|-7-7-7-7-7-7-7-7--5--7-7-7-7-7-7-7-7--5---7-7-7-7-7-7-7-7-|

above cont.
G|--------------------------------------------------------------|
D|--------------------------------------------------------------|
A|--------------------5-----------------------------------------|
E|-3-3-3-3-3-3--5-5---------------------------------------------|

little solo thing at the beginning
G|--------------------------7----9----11--9--7---------------|
D|---------------7----7--9----9-----------------7------------|
A|---------7--9----9-----------------------------------------|
E|--7--10----------------------------------------------------|

Chorus
G|----------------------------------------------------------------|
D|----------------------------------------------------------------|
A|---------5-5-5--------------------------------------------------|
E|-7-7-7----------5-5-5---7-7-7-----------------------------------|

little bridge
G|----------------------------------------------------------------|
D|----------------------------------------------------------------|
A|-9-9-9-9-9-9-9-9-9-9-9-9-9-9-9-9-9-9-9-9-9-97-9-9-99-9-7-9-9----|
E|----------------------------------------------------------------|

ending
G|---------------------------------------------------------------
D|---------------------------------------------------------------
A|-----------5-5-5-5--------------------7-9---------------------
E|--7-7-7-7-----------5-5-5-5---7--10---------------------------

G|--------------------------------------------------------------|
D|--------------------------------------------------------------|
A|------------5-5-5-5-----------9-7-----------------------------|
E|--7-7-7-7-----------5-5-5-5------10-7-------------------------|


3: WAKE-UP CALL

Verse
G|----------------------------------------------|
D|----------------------------------------------|
A|---55555555-8888------33333333-------32345----|
E|-----------------6666----------1111-----------|

G|-----------------------------------------------|
D|-----------------------------------------------|
A|---55555555-8888------33333333-------32345--5--|
E|-----------------6666-----------1111-----------|

Pre-Chorus:      X 2
G|------------------------------------------------|
D|------------------------------------------------|
A|---5---5---88----3-3-33-3-3-33-3-3-33-3-3-33----|
E|--------------66--------------------------------|

Chorus
G|------------------------------------------------|
D|------------------------------------------------|
A|---5555-------1111-3333---5555------3333-1111---|
E|---------1111------------------1111-------------|


G|--------------------------------------------------|
D|--------------------------------------------------|
A|---5555---------1111-3333---5555------3333-3333---|
E|---------1111--------------------1111-------------|

Bridge

G|-----------------------------------------------|
D|-----------------------------------------------|
A|--888-------555----------888--------55-55555---|
E|--------777-------333----------777-------------|

G|-----------------------------------------------|
D|-----------------------------------------------|
A|--888-------555----------888--------55-55555---|
E|--------777-------333----------777-------------|


4: CULT STATUS

Intro (2x):
G|---------------------------------------------|
D|---------------------------------------------|
A|----3-3333333-66-------3-3333333-6-8---------|
E|-3--------------4-44-3---------------6-66----|

Verse: (4x)
G|-------------------------------------------|
D|-------------------------------------------|
A|-33333333-6666-------33333333-6-8----------|
E|---------------4444---------------6666-----|

Chrous (2x)
G|-------------------------------------------|
D|-------------------------------------------|
A|-3333-6666-8888-----3333-6666-8888---------|
E|---------------6666----------------6-------|

Instrumental (!?!)
G|-------------------------------------------|
D|-------------------------------------------|
A|-3333-6666-----------3333-6666-4444--------|
E|-----------6666-4444----------------4646---|


5: PERFECT FIT

G|-----------------------------------|
D|-----------------------------------|
A|---3-5-3----3-------3-5-3--8>------|
E|5>-------5>----1!-5>-----------8>--|

dont mind the exclamation point after that 1 in there. its just to emphasize it goes low

Verse
G|--------------------|
D|--------------------|
A|-----3>-5>-3>-2>----|
E|-5>-----------------|

chorus
G|--------------------|
D|--------------------|
A|----3-2-3>-5>-3>-2>-|
E|-5>-----------------|

"i can be a part"      end
G|--------------------|------|
D|-----3>-------------|------|
A|--------3>----------|------|
E| -5>----------------|--3>--|


6: ADVANCES IN MODERN TECHNOLOGY

Intro 
G|------------------------------------------------------------------------| 
D|-----------------5-5----------------------------------------------------| 
A|-----------------------5------------------------------------------------| 
E|-0-(Let Ring)-----------------------------------------------------------| 

Verse 2x 
G|-------------------------------------------------------------------------|
D|-------------------------------------------------------------------------|
A|-7>--5>--7>--3>---2>--0>--2>--3333---------------------------------------|
E|-------------------------------------------------------------------------|

Chorus 2x 
G|------------------------------------------------------------------------|
D|------------------------------------------------------------------------|
A|-7>--5>--3>----7>--5>--3>-----------------------------------------------|
E|------------------------------------------------------------------------| 

Bridge 
G|------------------------------------------------------------------------| 
D|---------------------------------------4-5-7-5-4-0-(2x)--Last Time--55-| 
A|------------77------7>/10>-999-3--3>--5-------------------------------5-| 
E|-0-(Let Ring)-----------------------------------------------------------|

Outro 
G|------------------------------------------------------------------------| 
D|------------------------------------------------------------------------| 
A|-7777-5-77/2------------------------------------------------------------| 
E|------------------------------------------------------------------------|


7: THEORY OF REVOLUTION

I don't know


8: THIS SECRET NINJA

Intro

G|-------------------|
D|--9r---------------|
A|----------9>-------|
E|-------------------|

Verse part 1

G|---------------------------------------------------------------|
D|-------------------5-------------------------11-99889----------|
A|------10-5>----------5>-----------10-5>---9>-------------------|
E|-7>-----------7>--------3>---7>--------------------------------|

Verse part 2

G|---------------------------------------------------------------|
D|-------------------5-------------------------------------------|
A|------10-5>----------5>-------------10-5>---9>-----------------|
E|-7>-----------7>----------3>---7>------------------------------|

Chorus

G|---------------------------------------------------------------|
D|---------------------------------------------------------------|
A|-----------------2--5--------------------------5---------------|
E|-7-7-7-7-5-5-5-5-------3-3-3-3-7-7-7-7-5-5-5-5----5--3-3-3-3---|

Bridge

G|-----------------------------------------------------------------|
D|-----------------------------------------------------------------|
A|-2-2-2-2-------------------------2-2-2-2-------------------------|
E|---------3-3-3-3-5-5-5-5-0-0-0-0---------3-3-3-3-5-5-5-5-2-2-2-2-|

End on E|-3--


9: SOAP-BOX DERBY

Intro (jump in with guitar 2)
G|-----------------------------------------------------------|
D|-----------------------------------------------------------|
A|-------------------------------3-3---------3-3---------3-3-|
E|--5--5-5-5-5-5-5-5-5-5-5-5-5-5-----1-1-1-1-----3-3-3-3-----|

Intro (cont.)
G|-------------------------14-14-14-12----12----------------|
D|-------------------------------------14----14-14-12-12----|
A|-------------------------------------------------------12-|
E|-5(LET RING)----------------------------------------------|

Verse(x2)
   I'm not angry I'm just amused   At your quest for...
G|-----------------------------------------------------------|
D|-----------------------------------------------------------|
A|-------------------------------3-3---------3-3---------3-3-|
E|--5--5-5-5-5-5-5-5-5-5-5-5-5-5-----1-1-1-1-----3-3-3-3-----|

Chorus
G|--------------------------------------------------------------|
D|--------------------------------------------------------------|
A|---------------------------------8-8-8-8-8-8-8-8--------------|
E|-5-5-5-5-5-5-5-5-5-5-5-5-5-5-5-5-----------------3--3-3-3-3-3-|

Chorus (cont.)
G|-------------------------------------------------------------------------|
D|-------------------------------------------------------------------------|
A|--------------------------------8-8-8-8-8-8-8-8-10-10-10-10-10-10-10-10-7|
E|-5-5-5-5-5-5-5-5-5-5-5-5-5-5-5-5-----------------------------------------|

Other Part
G|-------------------------------------------------------------------------|
D|-------------------------------------------------------------------------|
A|--------3-3-3-3-7-7777-----------------3-3-3-3---------------------------|
E|-5-5555----------------7-7-7-7--5-5555---------3-3-3-3-3-3-3-3-----------|

Other Part (cont.)
G|-----------------------------------------------------------------|
D|-----------------------------------------------------------------|
A|-----------------7-7-7-7-7-7-7-7-----------------5-5-5-5-5-5-5-5-|
E|-5-5-5-5-5-5-5-5-----------------3-3-3-3-3-3-3-3-----------------|

Other Part (cont.)
G|------------------------------------------------------------|
D|------------------------------------------------------------|
A|---------7-7-7-7---------5-5-5-5----------7-5-3-----5-------|
E|-5-5-5-5---------3-3-3-3----------5-5-5-5-------3-----5-5-5-|

Then it goes back to the begining (you redo all the riffs)
and then the outro

Outro
G|------------------------------------------------------------|
D|------------------------------------------------------------|
A|---------7-7-7-7---------5-5-5-5----------7-5-3-----5-------|
E|-5-5-5-5---------3-3-3-3----------5-5-5-5-------3-----5-5-5-|


10: ASPIRIN FREE

Intro: 
G|--------------------------------------| 
D|------------------------------323532--| 
A|-----11111---------------11111------3-| 
E|33333-----111111111133333-------------| 

Verse: 
G|------------------------------------| 
D|------------------------------------| 
A|--------------5---------------------| 
E|33333666533333-565--366651111111111-| 

Chorus part 1: 
G|---------------------------------------| 
D|---------------------------------------| 
A|---------------------------------------| 
E|000003333377777777770000033333-5-5-5-5-| 

Chorus part 2: 
G|------------------------------------------------------| 
D|------------------------------------------------------|
A|77777-------577777------5555577777--------5-----------| 
E|-----8755558------875555----------87555558-7777777777-|

Continued: 
G|---------| 
D|---------| 
A|-5---2---| 
E|8-875-53-|

Right before breakdown: 
G|9-|
D|--|
A|--|
E|--| 

Breakdown: 
G|-----------------------------------------|
D|-----------------------------------------|
A|-----333330000055555-----333338888877777-|
E|00000---------------00000----------------|


11: FISHBOWL

I don't know


12: CHARLES ATLAS

Intro
G|------------------------|
D|------------------------|
A|------------------------|
E|-8s----0----------------|

Verse Riff 1
G|-----------------------------------------|
D|-----------------------------------------|  x4
A|-----------------------------3-3---------|
E|-5-5-5-5-5-5-5-5-1-1-1-1-0-0-------------|

Verse Riff 2
G|-----------------------------------------------------------------|
D|-----------------------------------------------------------------|
A|-5-5-5-5-5-5-5-5-----------------5-5-5-5-5-5-5-5-------------8-8-|
E|-----------------6-6-6-6-5-5-5-5-----------------6-6-6-6-5-5-----|

   |--------------------Play these two twice---------------------|

G|-----------------------------------------------------------------|
D|-----------------------------------------------------------------|
A|-5-5-5-5-5-5-5-5-------------------------------------------------|
E|-----------------6-6-6-6-5-5-5-5-8-8-8-8-8-8-8-8-6-6-6-6-3-3-3-3-|

G|--------------------------------|
D|--------------------------------|  x2
A|--------------------------------|
E|-8---8-8-----6-6-6-6-3-3-3-3----|

(Chorus)
G|----------------------------------------|
D|----------------------------------------|  x4
A|-----------------3-3-3-3-5-5-5-5--------|
E|-3-3-3-3-0-0-0-0------------------------|

G|----------------------------------------|
D|----------------------------------------|
A|-3-3-3-3-3-3-3-3-5-5-5-5-12////5--------|
E|----------------------------------------|

G|-----------------------------------------------------------------|
D|-----------------------------------------------------------------|
A|-5-5-5-5-5-5-5-5-----------------5-5-5-5-5-5-5-5-------------8-8-|
E|-----------------6-6-6-6-5-5-5-5-----------------6-6-6-6-5-5-----|

   |--------------------Play these two twice---------------------|

G|-----------------------------------------------------------------|
D|-----------------------------------------------------------------|
A|-5-5-5-5-5-5-5-5-------------------------------------------------|
E|-----------------6-6-6-6-5-5-5-5-8-8-8-8-8-8-8-8-6-6-6-6-3-3-3-3-|

G|--------------------------------|
D|--------------------------------|  x2
A|--------------------------------|
E|-8---8-8-----6-6-6-6-3-3-3-3----|

G|----------------------------------------|
D|----------------------------------------|  x4
A|-----------------3-3-3-3-5-5-5-5--------|
E|-3-3-3-3-0-0-0-0------------------------|

G|----------------------------------------|
D|----------------------------------------|
A|-3-3-3-3-3-3-3-3-5-5-5-5-5-5-5-5--------|
E|----------------------------------------|

(During Solo)
G|-----------------------------------------------------------------|
D|-----------------------------------------------------------------|
A|-----------------------------3-3-----------------------------3-3-|
E|-5-5-5-5-5-5-5-5-3-3-3-3-0-0-----5-5-5-5-5-5-5-5-3-3-3-3-0-0-----|

G|-------------------------|
D|---------5---5-7---------|
A|-----5-7---7-------------|
E|-8/5---------------------|

Ending 1
G|----------------------------------------|
D|----------------------------------------|  x4
A|-----------------5-5-5-5-7-7-7-7--------|
E|-5-5-5-5-2-2-2-2------------------------|

Ending 2
G|----------------------------------------|
D|-7-7-7-4-4-4-4-4------------------------|  x4
A|-----------------5-5-5-7-7-7-7-7--------|
E|----------------------------------------|


13: CROP TUB

intro

G|----------------------|
D|----------------------|   repeat a few times
A|---------4-44-------4-|
E|----6-66------6-66----|

verse

G|------------|---------------|
D|------------|---------------|
A|--4---------|--4--------7-6-|
E|-----4-6-4--|-----4-6-4-----|

hard to hear solo thingy right before the next verse

G|---------------------------------------|     
D|-9-11-9-11-9-11-9----9-----------------|    
A|-----------------11---11-10-9----------|     
E|------------------------------11-10-9\-|


14: CONSULT MY LOVER

Intro
E|-0-0-0

Verse
G|-----------------------------------------------------------------|
D|-----------------------------------------------------------------|
A|-7-7-7-7---------5-5-5-5---------3-3-3-3---------7-7-7-7---------|
E|---------3-3-3-3---------5-5-5-5---------3-3-3-3---------5-5-5-5-|

Chorus when "Proud" is said hit either the 5 or 10
G|------------------------------------------|
D|------------------------------------------|
A|-7-7-7-5-7-7-7-10-7-7-7-5---------5-5-5-5-|
E|--------------------------3-3-3-3---------|

Bridge
G|-----------------------------|
D|-----------------------------|
A|-----------------------------|
E|-0000000000000000000000000---|


15: TAKE THE TEST

 Intro/Verse

G|--------------------|
D|--------------------|
A|----------33331111--|
E|-33332333-----------|

G|----------------------|
D|-----------------310--|
A|----------33331-------|
E|-33332333-------------|

Chorus
G|--------------------------------------|
D|--------------------------------------|
A|-----3333-1111---------3333-1111-6666-|
E|-3333---------1111-3333---------------|

Bridge
G|-------------------------------------|
D|------------------11111111-----------|
A|---------11111111----------320--320--|
E|-33333333---------------------3----3-|

G|-------------------------------------|
D|------------------11111111-33333333--|
A|---------11111111--------------------|
E|-33333333----------------------------|


16: TWO OF A KIND

 Intro
G|----12-14-17-14------------------|
D|-12------------------------------|
A|----------------5-5-5-5----------|
E|-------------------------3-3-3-3-|

Verse 2x
G|-------------------------------------------------------------------------|
D|-----------------------------------------------------------------3-3-3-3-|
A|-5-5-5-5---------5-5-5-5-----------------5-5-5-5-------------------------|
E|---------3-3-3-3---------5-5-5-5-6-6-6-6---------3-3-3-3-6-6-6-6---------|

Chorus
G|-------------------------------------------------------------------------|
D|-----------------3-3-3-3-----------------------------3-3-3-3-------------|
A|-5-5-5-5-----------------------3-3-3-5-5-5-5-----------------6-6-6-5-5-5-|
E|---------3-3-3-3---------6-6-6---------------3-3-3-3---------------------|

repeat Verse 2x
repeat Chorus 3x

Outro
G|-------------------------------------------------------------------|
D|-----------------3-3-3-3-5-8-5-------5-------------------3-3-3-3-5-|
A|-5-5-5-5-----------------------8-5-8---8-5-5-5-5-------------------|
E|---------6-6-6-6---------------------------------6-6-6-6-----------|


17: SHATTY FATMAS

> means that im too lazy to actually figure out the amount of strums, so you can while playing it.

Intro
G|--------------|
D|--------------|
A|--------------|
E|-2-2-2-2~-----|

Verse
G|-----------------------|
D|-----------------------|
A|-----------------------|  x4
E|-2>---7>--5------------|

Chorus
G|--------------------------------|
D|--------------------------------|
A|---------------------------5----| x2
E|-222022-7777-0-222022-7777--5---|

Bridge
G|------------------------------|
D|------------------------------|
A|-----18-18-17-17-16-16-13-13--| Not sure if the high part is right.
E|-2~---------------------------|

G|-------------------------------------|
D|-------------------------------------|
A|-------------------------------------|
E|-2>--5>--7>----2>---5>--7>-9>-10>-12-|

G|---------------------|
D|---------------------|
A|-------------3-3-----|
E|-2>--5>--7>------3-3-|

-repeat verse
-repeat chorus

Outro
G|---------------|
D|---------------|
A|-5-------------|
E|--5-5-3~-------|


18: YURF RENDENMEIN

I don't know


19: CRUISE CONTROL

Verse:
G|----------------------------2-|
D|-4-44444-3-2-0--4-44444---2---|  x4
A|------------------------4-----|
E|------------------------------|

Chorus:
G|---------------|    |-----------------|
D|-4444-3-2222---| x2 |-4444-3-2222---4-|
A|-------------2-|    |-------------2---|
E|---------------|    |-----------------|

Bridge:
G|----------------------------------------------------|
D|----------------------------------------------------|
A|-/9-999999-----------------9-999999-----------------|
E|-----------10-101010101010----------10-101010101010-|

G|-----------------------------------|
D|-----------------------------------|
A|-9-999999-------------11-9-9999----|
E|----------10-10101010-----------10-|


20: MODERN EPIC

Intro:        
G |-------------------|   |------------------| 
D |-------------------|   |------------------| 
A |-------5----5-3-7--|x2   |-7-7-7-7-7-7-7-7--| 
E |--5-3--------------|   |------------------| 
            
Verse: 
G |-----------------------------------------------------------------------| 
D |-----------------------------------------------------------------------| 
A |----------5-5----------5-5-----------5-5-5-5-5-5-5-5-7-7-7-7-7-7-7-7---| 
E |--5-5-5-5------5-5-5-5------5-5-5-5------------------------------------| 

Chorus 
G |--------------------------------------------------------------| 
D |--------------------------------------------------------------| 
A |-----------5-5-5-5-10-10-10-10-7-7-7-7-5-5-5-5-7-5-9-5--------| 
E |--5-5-5-5-----------------------------------------------------|

HOPE YOU CAN LEARN EM ALL!
die666e@yahoo.com
Suggest correction
Give kudos to tab author, rate the tab!
1 2 3 4 5
comments
print report bad tab
guest
You may want to rate the tab now too:
select rating
Please do not post tabs as comments. Select "correction" instead!