Oops, an error
Loading. Please wait.

Wake Up Call Tab

by AFI
574 views 3 this week
no commentswrite comment
1 2 3 4 5
3 more votes to show rating
add to favorites
launch autoscroll
font size
0
reset
how to read this tab
guitar tuner
Autoscroll
slow
fast
+/-
esc
set tempo
stop
Help us to improve Ultimate-Guitar.com Take our survey!
×
Author
Difficulty
novice
"Wake-Up Call"
 AFI
 Very Proud of Ya

INTRO
E|--------------------------------------------|
B|--------------------------------------------|
G|-7-7--7-7---7-7-101010-3-3-3----------------|
D|-7-7--7-7---7-7-101010-3-3-3---------(x2)---|
A|-5-5--5-5---5-5-8-8-8--1-1-1----------------|
e|--------------------------------------------|

VERSE
E|--------------------------------------------|
B|--------------------------------------------|
G|-777777-101010-333----555555-222-555--------|
D|-777777-101010-333----555555-222-555---(x2)-|
A|-555555-8-8-8--111----333333-000-333--------|
e|--------------------------------------------|

CHORUS
E|-----------------------------------------|
B|-----------------------------------------|
G|-7-7-1010-33---55-55-55-55---------------|
D|-7-7-1010-33---55-55-55-55-----(x2)------|
A|-5-5-8-8--11---33-33-33-33---------------|
e|-----------------------------------------|
               PM*  *  *  *
ENDING
E|------------------------------------------------|
B|------------------------------------------------|
G|-7777-10101010-3333-5555------------------------|
D|-7777-10101010-3333-5555-(x4)-(on 4th repitition|
A|-5555-8-8-8-8--1111-3333---------don't play F)--|  
e|------------------------------------------------|

E|---------------------------------------------|
B|---------------------------------------------|
G|-101010-----777------------------------------|
D|-101010-999-777-555-(x4)-(on 4th repitition--|
A|-8-8-8--999-555-555---------don't play F)----|
e|--------777-----333--------------------------|
 PM* *    **  **  **

		BASS SOLO
BRIDGE
E|------------------------------------------------------------|
B|------------------------------------------------------------|
G|--7777-101010-333-555---------------------------------------|
D|--7777-101010-333-555-(x4)-(on 4th repitition don't play F)-|
A|--5555-8-8-8--111-333---------------------------------------|
e|------------------------------------------------------------|

END ON....
E|----------|
B|----------|
G|----7-----|
D|----7-----|
A|----5-----|
e|----------|	Song Progression...
		INTRO
		VERSE
		CHORUS
		VERSE
		CHORUS
		ENDING
		BASS SOLO
		BRIDGE
		END ON...
Suggest correction
Give kudos to tab author, rate the tab!
1 2 3 4 5
comments
print report bad tab
guest
You may want to rate the tab now too:
select rating
Wanna post a correction for this tab? Suggest correction