Oops, an error
Loading. Please wait.

Where We Used To Play Tab

by AFI
2,911 views 1 this week
5 commentsread comments
1 2 3 4 5
1 last vote to show rating
add to favorites
launch autoscroll
font size
0
reset
how to read this tab
guitar tuner
Autoscroll
slow
fast
+/-
esc
set tempo
stop
Help us to improve Ultimate-Guitar.com Take our survey!
×
Author
Tuning
D# G# C# F# A# D#
Title: Where We Used To Play
Artist: AFI
Album: Crash Love (Deluxe Edition)

Tabbed by Hazel (lezahtherock). Email: latetoo00@hotmail.com

Tuning: Half-Step Down.

Listen to figure out strumming please.

Intro/Verse (after drums and bass) - Clean
Note: These are 9's, 10's, 11's, 12's and 14's. 

eb|-----------------------|-----------------------|
Bb|-----------------------|----------------12~----|
Gb|-----11---9--11--11-11-|-----11---9--11--------|
Db|-9-9---99--9----9--9---|-9-9---99--9-----------| x4
Ab|-----------------------|-----------------------|
Eb|-----------------------|-----------------------|

eb|-----------------------|-----------------------------|
Bb|-----------------------|-----------------------------|
Gb|-----11---9--11--11-11-|-------11-----9--11---11--11-|
Db|-9-9---99--9----9--9---|-----------------------------| 
Ab|-----------------------|-10-10---1010--10---10--10---|
Eb|-----------------------|-----------------------------|

eb|-----------------------------|-----------------------------|
Bb|-----------------------------|-----------------------------|
Gb|-----------------------------|-----------------------------|
Db|-------11---11h1212---11--11-|-------14---12h1414---14--14-|
Ab|-12-12----12--------12--12---|-----------------------------|
Eb|-----------------------------|-12-12----12--------12--12---|

Pre-chorus - Distortion

eb|-5~~~---5-|-3~~~---3-|-5~~~---5-|-3-3-3~-5555-5~-|
Bb|-5~~~---5-|-3~~~---3-|-5~~~---5-|-3-3-3~-5555-5~-|
Gb|-6~~~---6-|-4~~~---4-|-6~~~---6-|-4-4-4~-6666-6~-|
Db|-7~~~---7-|-5~~~---5-|-7~~~---7-|-5-5-5~-7777-7~-|
Ab|-7~~~---7-|-5~~~---5-|-7~~~---7-|-5-5-5~-7777-7~-|
Eb|-5~~~---5-|-3~~~---3-|-5~~~---5-|-3-3-3~-5555-5~-|
PM                                   . .    ....

Chorus 
Listen for strumming pattern.

eb|-7-7/10-10-|-10-10\5-5-|
Bb|-7-7/10-10-|-10-10\5-5-|
Gb|-7-7/12-12-|-11-11\6-6-|
Db|-9-9/12-12-|-12-12\7-7-|
Ab|-9-9/10-10-|-12-12\7-7-|
Eb|-7-7/10-10-|-10-10\5-5-|

eb|-7-7/10-10-|-10-10\-----5-|
Bb|-7-7/10-10-|-10-10\-----5-|
Gb|-7-7/12-12-|-11-11\-----6-|
Db|-9-9/12-12-|-12-12\11-7-7-|
Ab|-9-9/10-10-|-12-12\11-7-7-|
Eb|-7-7/10-10-|-10-10\9--5-5-|

eb|-7-7/10-10-|-10-10\5-5-|
Bb|-7-7/10-10-|-10-10\5-5-|
Gb|-7-7/12-12-|-11-11\6-6-|
Db|-9-9/12-12-|-12-12\7-7-|
Ab|-9-9/10-10-|-12-12\7-7-|
Eb|-7-7/10-10-|-10-10\5-5-|

eb|-7-7/10-10-|-10-10\--------------------|-7~-|
Bb|-7-7/10-10-|-10-10\--------------------|-7~-|
Gb|-7-7/12-12-|-11-11\------------9-9-9-9-|-7~-|
Db|-9-9/12-12-|-12-12\11-11-11-11---------|-9~-|
Ab|-9-9/10-10-|-12-12\--------------------|-9~-|
Eb|-7-7/10-10-|-10-10\--------------------|-7~-|

Fill
eb|------------|
Bb|------------|
Gb|---11~---9~-|
Db|-9-----9----|
Ab|------------|
Eb|------------|

Verse 2 - Palm muted, distortion

eb|-----------------------|-----------------------|
Bb|-----------------------|----------------12~----|
Gb|-----11---9--11--11-11-|-----11---9--11--------|
Db|-9-9---99--9----9--9---|-9-9---99--9-----------| x2
Ab|-----------------------|-----------------------|
Eb|-----------------------|-----------------------|

eb|-----------------------|-----------------------------|
Bb|-----------------------|-----------------------------|
Gb|-----11---9--11--11-11-|-------11-----9--11---11--11-|
Db|-9-9---99--9----9--9---|-----------------------------| 
Ab|-----------------------|-10-10---1010--10---10--10---|
Eb|-----------------------|-----------------------------|

eb|-----------------------------|-----------------------------|
Bb|-----------------------------|-----------------------------|
Gb|-----------------------------|-----------------------------|
Db|-------11---11h1212---11--11-|-------14---12h1414---14--14-|
Ab|-12-12----12--------12--12---|-----------------------------|
Eb|-----------------------------|-12-12----12--------12--12---|

Pre-chorus - Distortion
                    v 2nd guitar plays this note
eb|-5~~~---5-|-3~~~(2)---3-|-5~~~---5-|-3-3-3~-5555-5~-|
Bb|-5~~~---5-|-3~~~------3-|-5~~~---5-|-3-3-3~-5555-5~-|
Gb|-6~~~---6-|-4~~~------4-|-6~~~---6-|-4-4-4~-6666-6~-|
Db|-7~~~---7-|-5~~~------5-|-7~~~---7-|-5-5-5~-7777-7~-|
Ab|-7~~~---7-|-5~~~------5-|-7~~~---7-|-5-5-5~-7777-7~-|
Eb|-5~~~---5-|-3~~~------3-|-5~~~---5-|-3-3-3~-5555-5~-|
PM                                   . .    ....

Chorus 
Listen for strumming pattern.

Chorus 
Listen for strumming pattern.

eb|-7-7/10-10-|-10-10\5-5-|
Bb|-7-7/10-10-|-10-10\5-5-|
Gb|-7-7/12-12-|-11-11\6-6-|
Db|-9-9/12-12-|-12-12\7-7-|
Ab|-9-9/10-10-|-12-12\7-7-|
Eb|-7-7/10-10-|-10-10\5-5-|

eb|-7-7/10-10-|-10-10\-----5-|
Bb|-7-7/10-10-|-10-10\-----5-|
Gb|-7-7/12-12-|-11-11\-----6-|
Db|-9-9/12-12-|-12-12\11-7-7-|
Ab|-9-9/10-10-|-12-12\11-7-7-|
Eb|-7-7/10-10-|-10-10\9--5-5-|

eb|-7-7/10-10-|-10-10\5-5-|
Bb|-7-7/10-10-|-10-10\5-5-|
Gb|-7-7/12-12-|-11-11\6-6-|
Db|-9-9/12-12-|-12-12\7-7-|
Ab|-9-9/10-10-|-12-12\7-7-|
Eb|-7-7/10-10-|-10-10\5-5-|

eb|-7-7/10-10-|-10-10\--------------------|
Bb|-7-7/10-10-|-10-10\--------------------|
Gb|-7-7/12-12-|-11-11\------------9-9-9-9-|
Db|-9-9/12-12-|-12-12\11-11-11-11---------|
Ab|-9-9/10-10-|-12-12\--------------------|
Eb|-7-7/10-10-|-10-10\--------------------|

Bridge

eb|------3---------5---------7---------7----|
Bb|------3---------5---------7---------7----|
Gb|------4---------6---------7---------7----|
Db|-5----5----7----7----9----9----9----9----|
Ab|-5-x4-5-x4-7-x4-7-x4-9-x4-9-x4-9-x4-9-x4-|
Eb|-3----3----5----5----7----7----7----7----|

eb|------3---------5---------7--------------|
Bb|------3---------5---------7--------------|
Gb|------4---------6---------7----7-7-9-9---|
Db|-5----5----7----7----9----9----7-7-9-9---|
Ab|-5-x4-5-x4-7-x4-7-x4-9-x4-9-x4-5-5-7-7---|
Eb|-3----3----5----5----7----7--------------|

eb|------3---------5---------7---------5----|
Bb|------3---------5---------7---------5----|
Gb|------4---------6---------7---------5----|
Db|-5----5----7----7----9----9----7----7----|
Ab|-5-x4-5-x4-7-x4-7-x4-9-x4-9-x4-7-x4-7-x4-|
Eb|-3----3----5----5----7----7----5----5----|

eb|------3---------6------------7----|
Bb|------3---------6------------7----|
Gb|------4---------6------------7----|
Db|-5----5----8----8----9-9-9-9-9----|
Ab|-5-x4-5-x4-8-x4-8-x4-9-9-9-9-9-x8-|
Eb|-3----3----6----6----7-7-7-7-7----|
PM                      . . . .

I.. I might seem a bit peculiar... - Clean
eb|-----------------------|-----------------------------|
Bb|-----------------------|-----------------------------|
Gb|-----11---9--11--11-11-|-------11-----9--11---11--11-|
Db|-9-9---99--9----9--9---|-----------------------------| 
Ab|-----------------------|-10-10---1010--10---10--10---|
Eb|-----------------------|-----------------------------|
                                  Distortion
eb|-----------------------------|-5-5----x-x-x-x-|
Bb|-----------------------------|-5-5----x-x-x-x-|
Gb|-----------------------------|-6-6----x-x-x-x-|
Db|-------11---11h1212---11--11-|-7-7----x-x-x-x-|
Ab|-12-12----12--------12--12---|-7-7----x-x-x-x-|
Eb|-----------------------------|-5-5----x-x-x-x-|


Chorus 
Listen for strumming pattern.

eb|-7-7/10-10-|-10-10\5-5-|
Bb|-7-7/10-10-|-10-10\5-5-|
Gb|-7-7/12-12-|-11-11\6-6-|
Db|-9-9/12-12-|-12-12\7-7-|
Ab|-9-9/10-10-|-12-12\7-7-|
Eb|-7-7/10-10-|-10-10\5-5-|

eb|-7-7/10-10-|-10-10\-----5-|
Bb|-7-7/10-10-|-10-10\-----5-|
Gb|-7-7/12-12-|-11-11\-----6-|
Db|-9-9/12-12-|-12-12\11-7-7-|
Ab|-9-9/10-10-|-12-12\11-7-7-|
Eb|-7-7/10-10-|-10-10\9--5-5-|

eb|-7-7/10-10-|-10-10\5-5-|
Bb|-7-7/10-10-|-10-10\5-5-|
Gb|-7-7/12-12-|-11-11\6-6-|
Db|-9-9/12-12-|-12-12\7-7-|
Ab|-9-9/10-10-|-12-12\7-7-|
Eb|-7-7/10-10-|-10-10\5-5-|

eb|-7-7/10-10-|-10-10\--------------------|                            |-7~-|
Bb|-7-7/10-10-|-10-10\--------------------|                            |-7~-|
Gb|-7-7/12-12-|-11-11\------------9-9-9-9-|                            |-7~-|
Db|-9-9/12-12-|-12-12\11-11-11-11---------| repeat chorus, then end on |-9~-|
Ab|-9-9/10-10-|-12-12\--------------------|                            |-9~-|
Eb|-7-7/10-10-|-10-10\--------------------|                            |-7~-|


2nd time: Second guitar

eb|-------------------------|-----------------------|
Bb|-------------------------|-----------------------|
Gb|-------------------------|-----------------------|
Db|-------------------------|-----------------------|
Ab|-------------------------|-----------------------|
Eb|-5/7-7-5/7-7-5/7-10-9-7~-|-5/7-7-5/7-7-5/7-10-9~-|

eb|----------------------------------|--------------------------|
Bb|----------------------------------|--------------------------|
Gb|----------------------------------|--------------------------|
Db|----------------------------------|--------------------------|
Ab|-10\9-7/9-10\9-7/9-10\9-7/9-7~----|--------------------------|
Eb|-------------------------------9~-|-5/7-7-5/7-7-5/7-10\9~-7~-|

Outro - Clean
eb|-----------------------|-----------------------|-----------------------|-----|
Bb|-----------------------|-----------------------|-----------------------|-----|
Gb|-----11---9--11----11--|-----11---9--11----11--|-----11---9--11----11--|-11~-|
Db|-9-9---99--9----99---9-|-9-9---99--9----99---9-|-9-9---99--9----99---9-|-----|
Ab|-----------------------|-----------------------|-----------------------|-----|
Eb|-----------------------|-----------------------|-----------------------|-----|

/   slide up
\   slide down
h   hammer-on
p   pull-off
~   vibrato/let ring
+   harmonic
x   Mute note
b   bend
r   release
Suggest correction
Give kudos to tab author, rate the tab!
1 2 3 4 5
comments
print report bad tab
5 comments total. Showing first comments.
0 reply
Cliff Geezer 210 Feb 09, 2010 10:34 PM

Great Tab though the chorus doesnt quite sound right. But thank you for finally tabbing this. Great!

0 reply
lezahtherock 290 Feb 10, 2010 05:20 AM

Thanks. I keep getting second thoughts about the chorus too, I might listen to it again when I get a good pair of earphones. Or if you can hear it and provide a correction, that'll be great too, I'll just edit it and credit you if you're alright with it. :)

0 reply
Cliff Geezer 210 Feb 13, 2010 11:05 PM

I think you actually just need to reverse the second and the third chords in the chorus

i addition it might be helpful to actually show the strum pattern just so you can see how long you play each chord

i can help with that if you need it

guest
You may want to rate the tab now too:
select rating
Wanna post a correction for this tab? Suggest correction