Oops, an error
Loading. Please wait.

Your Name Here bass

version 3
version 3

Whole song

Interactive

by AFI
177 views 1 this week
no commentswrite comment
1 2 3 4 5
1 last vote to show rating
add to favorites
×
Save as Personal and add changes to this tab that will be seen only by you. Learn more ›
×
You can save this tab as Personal to edit and correct it or add notes. All changes will be seen only by you. Learn more »
launch autoscroll
font size
0
reset
guitar tuner
edit
Autoscroll
slow
fast
+/-
esc
set tempo
stop
Author
band: afi
song: your name here
album: answer that and stay fashionable
bass tabs
tabbed by: norefundsbass
tunning: EADG

key:
*=let ring
x10=strum note 10 times
x5=strum note 5 times


ok i noticed that no one had this song tabbed right... and since i know it so well.. i will tab it for you.

intro/verses:
G--------------------------------------------------------------]
D---------------------9-10-------------------------------------]
A------8x10------10x5------------8-7-5---8-7-5-8---------------]
E-5x10------8x10------------5x10-------8---------8x10-10x5-8x5-]

chorus:
G---------------------------------------------------]
D-----------------7x5-9-10--7x10------------7x5-9-10]
A------8x10-10x10----------------8x10-10x10---------]
E-5x10----------------------------------------------]

[repeat verse]
[repeat chorus]

outro:
G----------------------------]
D----------------------------]
A----8*----10*----8----------]
E-5*----8*------5---8-10x10--]

G-------------------------------------------/-------]
D-------------------------------------------/-------]
A------8x10------10x10-------8x10-----------/-------]
E-5x10------8x10--------5x10------8x10-10x5-8x5/-5-5-5*]

a few last things too add. if you think the chorus is wrong listen to the
2nd time through it. on the 2nd set he plays the A an octave higher the the
first. also try not to play the verse on the end of the outro. it sounds
like its about to play it but.... it doesn't. this tab is 100% correct
without a doubt in my mind. im sure it can be played with different fingerings,
but these are the correct notes. any questions on this tab just email
me at norefundsbass@yahoo.com or if you need another song tabbed from this cd
just email me the song you want tabbed.
Suggest correction
Creating personal tab
Creating personal tab
You can edit any tab online and save it as your Personal.

You can edit, replace or remove any tab part or add personal notes – all changes will be seen only by you.

Personal tabs can be accessed anytime from any device, even offline.
Learn more »
Give kudos to tab author, rate the tab!
1 2 3 4 5
comments
print report bad tab
guest
You may want to rate the tab now too:
select rating
Wanna post a correction for this tab? Suggest correction