Oops, an error
Loading. Please wait.

Because I Got High Live bass

version 5
version 5

Interactive

by Afroman
829 views 24 this week
no commentswrite comment
1 2 3 4 5
2 more votes to show rating
add to favorites
×
Save as Personal and add changes to this tab that will be seen only by you. Learn more ›
×
You can save this tab as Personal to edit and correct it or add notes. All changes will be seen only by you. Learn more »
launch autoscroll
font size
0
reset
guitar tuner
edit
Autoscroll
slow
fast
+/-
esc
set tempo
stop
Author
Difficulty
After looking at other tabs, watching covers and listening to this song by ear, I've
finally been able to figure out the correct bass line for this song.  If you have trouble
with the timing of these notes, I suggest you pause playing for a second and listen to 
the sound of the beat in the song by itself.  The bass is really easy to identify in this
case.  I hope you all enjoy it!

G|----------------------------------------------------------------------|
D|----------------------------------------------------------------------|
A|-10---10-10--10----------------------------------10--10-10--10-101010-|
E|------------------8---8-8--8-88810---10-10--10------------------------|

G|------------------------------------------------------------------|
D|-----------------------------------------------------101210-9-797-|
A|-10---10-10--10-----------------10---10----------10---------------|
E|------------------8---8-8--8-888--------10--10--------------------|

Keep repeating throughout the entire song

            
            
Suggest correction
Creating personal tab
Creating personal tab
You can edit any tab online and save it as your Personal.

You can edit, replace or remove any tab part or add personal notes – all changes will be seen only by you.

Personal tabs can be accessed anytime from any device, even offline.
Learn more »
Give kudos to tab author, rate the tab!
1 2 3 4 5
comments
print report bad tab
guest
You may want to rate the tab now too:
select rating
Wanna post a correction for this tab? Suggest correction