Oops, an error
Loading. Please wait.

Colt 45 bass

version 2
version 2

Whole song

Interactive

by Afroman
41,638 views 57 this week
7 commentsread comments
1 2 3 4 5
x 26
add to favorites
×
Save as Personal and add changes to this tab that will be seen only by you. Learn more ›
×
You can save this tab as Personal to edit and correct it or add notes. All changes will be seen only by you. Learn more »
launch autoscroll
font size
0
reset
guitar tuner
edit
Autoscroll
slow
fast
+/-
esc
set tempo
stop
Author
-------------------------------------------------------------------------------                      
Colt 45 - Afroman
-------------------------------------------------------------------------------

Tabbed By : charlie metzler
e-mail: thriftystickrythym@yahoo.com

Tuning: standard E,A,D,G

I realized no one ever gets this tab right even though it's just a scale so I decided to tab it.


Riff 1
G|------------------------------------------------------------------------------|
D|----------------5h7-7-5h7-----------------------------------------------------|
A|---------5-7-7----------------------------------------------------------------|
E|-5--7-8-----------------------------------------------------------------------|

Riff 2
G|----------------------------------------------------------------------------------|
D|----------------------------------------------------------------------------------|
A|---------5-7-7--7-7-7--5----------------------------------------------------------|
E|-5--7-8------------------8-7------------------------------------------------------|


Alternate between the two riffs and listen to the timing and that's it.


************************************

| h  Hammer-on

************************************

            
            
Suggest correction
Creating personal tab
Creating personal tab
You can edit any tab online and save it as your Personal.

You can edit, replace or remove any tab part or add personal notes – all changes will be seen only by you.

Personal tabs can be accessed anytime from any device, even offline.
Learn more »
comments
print report bad tab
7 comments total. Showing first comments.
0 reply
BassPlaya92 10 Dec 17, 2005 05:18 PM

This tab is perfect, but there are a couple parts in the song where the bass ends on different notes. There's only a few and they're not too hard to figure out.

0 reply
soundclashdiary 10 Sep 03, 2006 08:46 PM

Good Tab, 5 stars

0 reply
bucketbrodie666 10 May 05, 2007 06:38 PM

nice perfect

guest
You may want to rate the tab now too:
select rating
Wanna post a correction for this tab? Suggest correction