Oops, an error
Loading. Please wait.

Crazy Rap Bass

version 1
version 1

Whole song

by Afroman
5,561 views 6 this week
no commentswrite comment
1 2 3 4 5
1 last vote to show rating
add to favorites
launch autoscroll
font size
0
reset
guitar tuner
×
Best way to learn
"Crazy Rap"
Autoscroll
slow
fast
+/-
esc
set tempo
stop
Tuning
E A D G
tabs: afroman
song: crazy rap
tabbed by: richard shearer

Part 1
e |---------------------------
B |---------------------------
G |---------------------------
D |--------------5r7-7-5-7----
A |---------5-7---------------
E |--5-7-8--------------------

Part 2
e |---------------------------
B |---------------------------
G |---------------------------
D |-----------5-3-2-0---------
A |-------5-7---------3-------
E |-5-7-8---------------------
 
play part 1 and part 2 after each other, repeat as necessary. 
sometimes only the first 5 notes of each part is played.
Suggest correction
Give kudos to tab author, rate the tab!
1 2 3 4 5
comments
print report bad tab
guest
You may want to rate the tab now too:
select rating
Wanna post a correction for this tab? Suggest correction