Oops, an error
Loading. Please wait.

Valentines Day Bass Tab

103 views 1 this week
no commentswrite comment
1 2 3 4 5
3 more votes to show rating
add to favorites
launch autoscroll
font size
0
reset
guitar tuner
Autoscroll
slow
fast
+/-
esc
set tempo
stop
Help us to improve Ultimate-Guitar.com Take our survey!
×
Difficulty
advanced
This a new band ..... it's the coolest ever .... you should list to it...


intro: (x2)
e)--------------------------------------------------------------------------|
a)------2-----7 - 2---------------------------------------------------------|
d)--2-----7-----------------------------------------------------------------|
g)--------------------------------------------------------------------------|

chrous:
e)--------------------------------------------------------------------------|
a)--------2-------2----------5 - 3 7----------------------------------------|
d)-----2-------2-------5   7------------------------------------------------|
g)--------------------------------------------------------------------------|

xxxxxxxxxxxxxxxxxxxxxxxxxxxxx the end xxxxxxxxxxxxxxxxxxx
Suggest correction
Give kudos to tab author, rate the tab!
1 2 3 4 5
comments
print report bad tab
guest
You may want to rate the tab now too:
select rating
Wanna post a correction for this tab? Suggest correction