Oops, an error
Loading. Please wait.

A Steady Decline Tab

version 1
version 1

Whole song

Interactive

16,795 views 15 this week
15 commentsread comments
1 2 3 4 5
accurate
x 5
add to favorites
launch autoscroll
font size
0
reset
how to read this tab
guitar tuner
Autoscroll
slow
fast
+/-
esc
set tempo
stop
Help us to improve Ultimate-Guitar.com Take our survey!
×
Author
AFTER THE BURIAL - A STEADY DECLINE
this song is played on 7-strings, in A# standard tuning.

   
e|---------------------------------------------------------------------------|
B|---------------------------------------------------------------------------|
G|---------------------------------------------------------------------------|
D|---------------------------------------------------------------------------|
A|-----------2----------------------0-----------------------------2----------|
E|---------------------------------------------------------------------------|
B|-000-001/2-----001/2-0--000-001/2---001/2-0-001/2-0---000-001/2----001/2-0-|

e|-------------------------------|
B|-------------------------------|
G|-------------------------------|
D|-------------------------------|x6
A|-----------0-------------------|
E|-------------------------------|
B|-000-001/2-----001/2-0--001/2-0|

e|-----------------------------7-10-7---------------------------------------|
B|---------------------------8--------8-------------------------------------|
G|-------------------------7------------7-----------------------------------|
D|---------------9---5~/-9--------------------9---5~-----9---5~------5~-----|
A|-2~--------0-0---0----------------------0-0---0----0-0---0-----0-0--------|x8
E|-2~-----------------------------------------------------------------------|
B|-0~-----------------------------------------------------------------------|
 OCTAVES COME IN ON TIMES 5-8
e|-----------------------------------------------------------------|
B|-----------------------------------------------------------------|
G|---9--------11------18-----16------14---------7-----11-----------|
D|---X--x16---X--x-8--X---x4-X---x4--X---x16----X-x4--X-x4---------|x2
A|---7--------9-------16-----14------12---------5-----9------------|
E|-----------------------------------------------------------------|
B|-----------------------------------------------------------------|

e|-------------------------|-------------------------------------------------|
B|-------------------------|-------------------------------------------------|
G|-------------------------|-------------------------------------------------|
D|-------------------------|-------------------------------------------------|
A|-------------------------|-------------------------------------------------|
E|-------------------------|--2--2----2-2-2-2---2-2--2-2---------------------|
B|--0-0---0-0-0-0--0-0--0-0|--0--0----0-0-0-0---0-0--0-0---------------------|

e|-----------------------------|---------------------------------------------|
B|-----------------------------|---------------------------------------------|
G|-----------------------------|---------------------------------------------|
D|-----------------------------|---------------------------------------------|
A|-----------------------------|------------------------9999-----------------|
E|-----------------------------|--------7777------------7777-----------------|
B|--000--000-000--000---000----|----00-------00-00--00--------00-00----------|

e|-------------|-------------------------|-----------------------------------|
B|-----2-------|-------------------------|-----------------------------------|
G|-----5-x13---|-------------------------|-----------------------------------|
D|-------------|-------------------------|-----------------------------------|
A|-------------|-------------------------|-----------------------------------|
E|--2----------|-------------------------|-----------------------------------|
B|--0----------|----00--00--1\12~~~~-----|-----------------------------------|

e|-----------------------------7-10-7---------------------------------------|
B|---------------------------8--------8-------------------------------------|
G|-------------------------7------------7-----------------------------------|
D|---------------9---5~/-9--------------------9---5~-----9---5~------5~-----|
A|-----------0-0---0----------------------0-0---0----0-0---0-----0-0--------|x8
E|--------------------------------------------------------------------------|
B|--------------------------------------------------------------------------|

e|-----------------------------7-10-7---------------------------------------|
B|---------------------------8--------8-------------------------------------|
G|-------------------------7------------7-----------------------------------|
D|---------------9---5~/-9--------------------9---5~-----9---5~------5~-----|
A|-2~--------0-0---0----------------------0-0---0----0-0---0-----0-0--------|x8
E|-2~-----------------------------------------------------------------------|
B|-0~-----------------------------------------------------------------------|

e|--------------------------------------------------------------------------|
B|--------------------------------------------------------------------------|
G|--------------------------------------------------------------------------|
D|--------------------------------------------------------------------------|
A|----------------------------------------------------------13-17-13-17-----|
E|------------------12-16-12-16---------------12-16-12-16-------------------|
B|-----11-15-11-15---------------11-15-11-15--------------------------------|

e|-----------------------------------------|--------------------------------
B|----------------------------15-18-15-18--|--------------------------------
G|----------------13-17-13-17--------------|--------------------------------|
D|---14-18-14-18---------------------------|--------------------------------|
A|-----------------------------------------|--------------------------------|
E|-----------------------------------------|--------------------------------|
B|-----------------------------------------|000-0000000-000-000000-000-000--|

The rest is really easy to figure out, just a bunch of breakdowns.

Suggest correction
What's this?
You can suggest a correction to this tab. Community and Mods will review your correction and vote to approve or reject it.
comments
print report bad tab
15 comments total. Showing first comments.
0 reply
Llamai 157 wrote on March 2 2008, 03:19 pm

You should do some more of them ^.^

+1 reply
xLFBx 15 wrote on June 12 2008, 03:55 am

i think its actually like this



e|-----------------------------7-10-7---------------------------------------|
B|---------------------------8--------8-------------------------------------|
G|-------------------------7------------7-----------------------------------|
D|---------------9---5~/-9--------------------9---5~-----9---7~------7~-----|
A|-2~--------0-0---0----------------------0-0---0----0-0---0-----0-0--------|x8
E|-2~-----------------------------------------------------------------------|
B|-0~-----------------------------------------------------------------------|

0 reply
xLFBx 15 wrote on June 12 2008, 03:55 am

i think its actually like this



e|-----------------------------7-10-7---------------------------------------|
B|---------------------------8--------8-------------------------------------|
G|-------------------------7------------7-----------------------------------|
D|---------------9---5~/-9--------------------9---5~-----9---7~------7~-----|
A|-2~--------0-0---0----------------------0-0---0----0-0---0-----0-0--------|x8
E|-2~-----------------------------------------------------------------------|
B|-0~-----------------------------------------------------------------------|

guest
You may want to rate the tab now too:
select rating
Please do not post tabs as comments. Select "correction" instead!