Oops, an error
Loading. Please wait.

Aspiration Tab

version 1
version 1

Whole song

Interactive

10,439 views 6 this week
no commentswrite comment
1 2 3 4 5
worth learning
x 4
add to favorites
launch autoscroll
font size
0
reset
how to read this tab
guitar tuner
Tab Pro tools
  • play this tab
  • loop segment
  • change instrument
  • show fretboard
  • metronome
×
Best way to learn
"Aspiration"
Autoscroll
slow
fast
+/-
esc
set tempo
stop
Contributor
Difficulty
Tuning
intermediate
D# G# C# F# A# D#
This is my tab for Aspiration by After The Burial. Great song. I got the last solo and 
slow part at the end
because I don't play them so I never bothered to figure them out by ear. I only did the 
harmony in the third
solo because I couldn't figure the lower one out. I am also tabbing the lead for the 
verse that Justin plays
live. It will be between the first verse and the syncopated breakdown. Enjoy. Rate and 
Message me for any
questions.

P.S. this is an 8 string tab

Intro/ First Solo
Eb|------------------------------------------------------------------------------------|
Bb|-------------------------------12\7-7/8\5-5/7\5-3~---------------------------10-----|
Gb|12~--/14\11/12\7~--------------------------------------------7-----9h12-9h12----12~-|
Db|------------------5p4-4h5p4----------------------------5-7h9---10~------------------|
Ab|----------------------------5~---------------------5h7------------------------------|
Eb|------------------------------------------------------------------------------------|
Bb|------------------------------------------------------------------------------------|
F |------------------------------------------------------------------------------------|

Eb|---------10h12p10------------------------------10^--10^-13^-10^----------------------|
Bb|10h12h13---------10^-10^-10^-13p10------10*\8~------------------12^-10-10^-----------|
Gb|---------------------12^-----------12p9------------------------------------11-11^----|
Db|----------------------------------------------------------------------------------12-|
Ab|-------------------------------------------------------------------------------------|
Eb|-------------------------------------------------------------------------------------|
Bb|-------------------------------------------------------------------------------------|
F |-------------------------------------------------------------------------------------|

Verse 1, 2x
Eb|-----------------------------------------------------------------------------------------|
Bb|-----------------------------------------------------------------------------------------|
Gb|-----------------------------------------------------------------------------------------|
Db|-----------------------------------------------------------------------------------------|
Ab|-----------------------------------------------------------------------------------------|
Eb|--3--------3-----7------3--------3------------3----------3-----7------3--------3---------|
Bb|---------------------------------------7---------------------------------------------7---|
F |1---1-11-1---1-5---5--1---1-11-1---1-5---5--1---1-1111-1---1-5---5--1---1-11-1---1-5---5-|

Lead during Verse 1, 4x (all natural harmonics)
Eb|----------------------------------------------------------------------------------|
Bb|----------7--------------------7--------------------7--------------------7--------|
Gb|12-5---12-----12-5---12---5-12---5---12---12---5-12---5---12---12-5---12-----12-5-|
Db|-----5------5-----------5----------5---------5----------5-----------5------5------|
Ab|----------------------------------------------------------------------------------|
Eb|----------------------------------------------------------------------------------|
Bb|----------------------------------------------------------------------------------|
F |----------------------------------------------------------------------------------|

Syncopated Breakdown, 2x (1s not 11s)
Eb|---------------------------------------------------------------|
Bb|---------------------------------------------------------------|
Gb|---------------------------------------------------------------|
Db|---------------------------------------------------------------|
Ab|---------------------------------------------------------------|
Eb|---------------------------------------------------------------|
Bb|---------------------------------------------------------------|
F |1-11-1-11-11-1-1-11-11-1-11-1-1-11-11-1-11-11-1-1-11-0-5-5-5-5-|

Second Syncopated Breakdown, 2x
Eb|----------------------------------------------------------------------|
Bb|----------------------------------------------------------------------|
Gb|----------------------------------------------------------------------|
Db|----------------------------------------------------------------------|
Ab|----------------------------------------------------------------------|
Eb|3--------0------------------------------------------------------------|
Bb|--------------------3--------1----------0-----------------------------|
F |--11-1-1---11-0-1-1---11-1-1---11-0-1-1---11-1-1-3-11-0-1-11-11-1-1-1-|

Third Syncopated Breakdown/ Verse 2
Eb|----------------------------------------------------------------------------------|
Bb|----------------------------------------------------------------------------------|
Gb|----------------------------------------------------------------------------------|
Db|----------------------------------------------------------------------------------|
Ab|----------------------------------------------------------------------------------|
Eb|00-0-0-00-00-0-0-0-00-00-0-0-00-00-0-0-0-00-00-0-0-00-00-0-0-0-0-0-00-0-0-00-00-0-|
Bb|----------------------------------------------------------------------------------|
F |----------------------------------------------------------------------------------|

Eb|-------------------------------------------------|
Bb|-------------------------------------------------|
Gb|-------------------------------------------------|
Db|-------------------------------------------------|
Ab|-------------------------------------------------|
Eb|0-0-00-00-0-0-0-0-00-0-0-0-00-00-0-0-00-00-0-0-0-|
Bb|-------------------------------------------------|
F |-------------------------------------------------|

Second Solo
Eb|---------3--2/10\7~---/19\15p14-----------------15p14---------------------------|
Bb|---------x----------------------15--------------------15\8/15-15-15-------------|
Gb|4~----2--0----------------------------------------------------------------------|
Db|-----------------------------------12p11----------------------------12p11-------|
Ab|-----------------------------------------12~------------------------------12----|
Eb|-----------------------------------------------------------------------------9^-|
Bb|--------------------------------------------------------------------------------|
F |--------------------------------------------------------------------------------|

Third Verse
Eb|--------------------------------------------------------------------------------------------|
Bb|--------------------------------------------------------------------------------------------|
Gb|--------------------------------------------------------------------------------------------|
Db|--------------------------------------------------------------------------------------------|
Ab|----------------------------------------------7----------7-----10------7----------7-----5---|
Eb|--3--------3-----7------3--------3----------------------------------------------------------|
Bb|---------------------------------------7----5---5-5-55-5---5-8----8--5---5-5-55-5---5-3---3-|
F |1---1-11-1---1-5---5--1---1-11-1---1-5---5--------------------------------------------------|

Eb|-----------------------------------------------------------------------------------------------|
Bb|-----------------------------------------------------------------------------------------------|
Gb|-----------------------------------------------------------------------------------------------|
Db|-----------------------------------------------------------------------------------------------|
Ab|--3----------3-----2------3----------3------------3----------3-----5------3----------3---------|
Eb|-------------------------------------------5-----------------------------------------------2---|
Bb|1---1-1-11-1---1-0---0--1---1-1-11-1---1-3---3--1---1-1-11-1---1-3---3--1---1-1-11-1---1-0---0-|
F |-----------------------------------------------------------------------------------------------|

Third Solo
Eb|19p17p15----------------------------------------------|
Bb|---------19p17h19p15~--17p15----15--------------------|
Gb|-----------------------------17----16~--/17\14/16\11~-|
Db|------------------------------------------------------|
Ab|------------------------------------------------------|
Eb|------------------------------------------------------|
Bb|------------------------------------------------------|
F |------------------------------------------------------|

Final Breakdown, 3x
Eb|----------------------------------------------------------------------------------|
Bb|----------------------------------------------------------------------------------|
Gb|----------------------------------------------------------------------------------|
Db|----------------------------------------------------------------------------------|
Ab|----------------------------------------------------------------------------------|
Eb|--------------3-----------------3----3-------------------3-----------3----------2-|
Bb|----------------------------------------------------------------------------------|
F |1111-3^-1111----11--1-11--1-11----1----11--1111-3^-1111----11--1-11----11--1111---|

Eb|-------------------|
Bb|-------------------|
Gb|-------------------|
Db|-------------------|
Ab|-------------------|
Eb|------3----------3-|
Bb|-------------------|
F |1111----11--1-11---|

Final Solo
Eb|12p10p9----10p9----9~----18p15p14----15p14------------------------------------------|
Bb|--------12------12----------------17-------17p15p14----15p14------------------------|
Gb|----------------------------------------------------16------16p15-------15----15----|
Db|------------------------------------------------------------------17p16----17----17-|
Ab|------------------------------------------------------------------------------------|
Eb|------------------------------------------------------------------------------------|
Bb|------------------------------------------------------------------------------------|
F |------------------------------------------------------------------------------------|

Eb|------------------------------------------------------------------------------------|
Bb|------------------------------------------------------------------------------------|
Gb|------------------------------------------------------------------------------------|
Db|16p14h17p16p14----------------------16p14-------14----14----------------------------|
Ab|---------------17p16p14h17p16p14p13-------17p16----17----17p16p14h17p16p14p13^---7^-|
Eb|------------------------------------------------------------------------------------|
Bb|------------------------------------------------------------------------------------|
F |------------------------------------------------------------------------------------|

Eb|-----------------------------------------------------------------------------15-|
Bb|--------------------------------------------------------------------15h17h18----|
Gb|-----------------11^-9--11^/9h11--9h11------------------------------------------|
Db|--4h5p4---5p4--------------------------9h11--11h12-11--11/9--11~----------------|
Ab|7-------7------7----------------------------------------------------------------|
Eb|--------------------------------------------------------------------------------|
Bb|--------------------------------------------------------------------------------|
F |--------------------------------------------------------------------------------|

Eb|17p15p14-------------------------------------------------12^--------------------|
Bb|---------17p15p14--------------------12^---11h12---11-11-----12p11-11-----------|
Gb|------------------16p15^--16---\11------------------------------------11\9------|
Db|----------------------------------------------------------------------------8-8-|
Ab|--------------------------------------------------------------------------------|
Eb|--------------------------------------------------------------------------------|
Bb|--------------------------------------------------------------------------------|
F |--------------------------------------------------------------------------------|

This part repeats till fade out. (It's something like this. Not entirely sure. Got this
from Guitar Pro.)
Eb|----------------------|
Bb|----------------------|
Gb|----------------------|
Db|-----6h7h9----11------|
Ab|--------------------8-|
Eb|9---------------------|
Bb|----------------------|
F |----------------------|
comments
print report bad tab
I want to post or [tab]
guest
You may want to rate the tab now too:
select rating
Please do not post tabs as comments. Select "correction" instead!