Oops, an error
Loading. Please wait.

Berzerker Tab

version 1
version 1

Whole song

Interactive

42,625 views 27 this week
7 commentsread comments
1 2 3 4 5
x 15
add to favorites
launch autoscroll
font size
0
reset
how to read this tab
guitar tuner
×
Best way to learn
"Berzerker"
Autoscroll
slow
fast
+/-
esc
set tempo
stop
"Berzerker"
BY: AFTER THE BURIAL
Transcribed by Joe Keller
jkguitar@comcast.net
This took A LOT OF TIME because
I tabbed both guitars 1 and 2.
Tuning
G# D# G# C# F# A# D#

[Intro]
[GTR 1]
D#|------------------------------------------------------------|
A#|------------------------------------------------------------|
F#|------------------------------------------------------------|
C#|-17-15-14h15p14-14h15p14----14h15p14------------------------|
G#|-------------------------17----------17-15-14h15p14---------|
D#|----------------------------------------------------17-16~--|
G#|------------------------------------------------------------|

D#|-----------------------------------------|
A#|-----------------------------------------|
F#|-----------------------------------------|
C#|-----------------------------------------|
G#|---15---15---14/17---17-17---17---19-15~-|
D#|-0----0----0-------0-------0----0--------|
G#|-----------------------------------------|

D#|-15-13-12h13p12-12h13p12----12h13p12-----------------------|
A#|-------------------------15----------15-13-12h13p12--------|
F#|----------------------------------------------------14-13~-|
C#|-----------------------------------------------------------|
G#|-----------------------------------------------------------|
D#|-----------------------------------------------------------|
G#|-----------------------------------------------------------|

D#|------------------------------------------|
A#|------------------------------------------|
F#|-14-14-----12--12--------17-17-----16--16-|
C#|-10-10------9---9--------14-14-----12--12-|
G#|-12-12-12--10--10--10-10-15-15-15--14--14-|
D#|------------------------------------------|
G#|------------------------------------------|

[Sweeps]
D#|------8h12p8---------8h12p8--------------------11h15p11----------11h15p11----------11h15p11----|
A#|---10--------10---10--------10--------------13----------13----13----------13----13----------13-|
F#|-9--------------9--------------9---------12----------------12----------------12----------------|
C#|---------------------------------10p7/13-------------------------------------------------------|
G#|-----------------------------------------------------------------------------------------------|
D#|-----------------------------------------------------------------------------------------------|
G#|-----------------------------------------------------------------------------------------------|

D#|-------12h17p12----------12h17p12----------12-15-|
A#|----13----------13----13----------13----13-------|
F#|-14----------------14----------------14----------|
C#|-------------------------------------------------|
G#|-------------------------------------------------|
D#|-------------------------------------------------|
G#|-------------------------------------------------|

[Play each of these notes really fast....]
D#|-17s-15s-13s-12s-13s-15s-13s-12s-----------------------------|
A#|-------------------------------------------------------------|
F#|-------------------------------------------------------------|
C#|---------------------------------12s-10s-9s-7s-9s-10s-9s-7s--|
G#|-------------------------------------------------------------|
D#|-------------------------------------------------------------|
G#|-------------------------------------------------------------|

[GTR 2]
D#|------------------------------------------------------------|
A#|------------------------------------------------------------|
F#|------------------------------------------------------------|
C#|-14-12-10h12p10-10h12p10----10h12p10------------------------|
G#|-------------------------14----------14-12-11h12p11---------|
D#|----------------------------------------------------13-12~--|
G#|------------------------------------------------------------|

D#|------------------------------------------|
A#|------------------------------------------|
F#|------------------------------------------|
C#|------------------------------------------|
G#|------------------------------------------|
D#|-0-12-0-12-0-10/13-0-13-13-0-13-0-15-12~--|
G#|------------------------------------------|

D#|------------------------------------------------------------|
A#|------------------------------------------------------------|
F#|------------------------------------------------------------|
C#|-17-15-14h15p14-14h15p14----14h15p14------------------------|
G#|-------------------------17----------17-15-14h15p14---------|
D#|----------------------------------------------------17-16~--|
G#|------------------------------------------------------------|

D#|-------------------------------------------------------------------------------|
A#|-------------------------------------------------------------------------------|
F#|-14-14-----12--12--------17-17-----16--16--------------------------------------|
C#|-10-10------9---9--------14-14-----12--12--------------------------------------|
G#|-12-12-12--10--10--10-10-15-15-15--14--14-12-12--------------------------------|
D#|-------------------------------------------------------------------------------|
G#|------------------------------------------------0-0-0-0---0-0-0--0-0-0---0-0-0-|

D#|------8h12p8---------8h12p8---------8-10-|
A#|---10--------10---10--------10---10------|
F#|-9--------------9--------------9---------|
C#|-----------------------------------------|
G#|-----------------------------------------|
D#|-----------------------------------------|
G#|-----------------------------------------|

D#|-12s-10s-8s-7s-8s-10s-8s-7s----------------------------|
A#|-------------------------------------------------------|
F#|----------------------------9s-7s------------7s--------|
C#|----------------------------------10s-8s-10s----10s-8s-|
G#|-------------------------------------------------------|
D#|-------------------------------------------------------|
G#|-------------------------------------------------------|

[VERSE]
[GTR 1]
D#|-15-13-12h13p12-12h13p12----12h13p12-----------------------|
A#|-------------------------15----------15-13-12h13p12--------|
F#|----------------------------------------------------14-13\-|
C#|-----------------------------------------------------------|
G#|-----------------------------------------------------------|
D#|-----------------------------------------------------------|
G#|-----------------------------------------------------------|

D#|---------------------------------------------------------------------12-------------|
A#|---------------------------------------------------------------12-15----15-13-12-13-|
F#|------------------------------------------------------------------------------------|
C#|------------------------------------------------------------------------------------|
G#|--------------------------------------12--------------------------------------------|
D#|-/12-0-10-0-8h10p8-0-7--0-000-14-15-0-----0-15-0-14h15p14-0-12----------------------|
G#|------------------------------------------------------------------------------------|

D#|--------------------------------------------------------------------------------------|
A#|--------------------------------------------------------------------------------------|
F#|--------------------------------------------------------------------------------------|
C#|--------------------------------------------------------------------------------------|
G#|---15---14h15p14---------15---14h15p14------------------------------------------------|
D#|-0----0----------0-15--0----0----------0-12--0-11-11/15\12-0-/15--15-0-14--0-12/14\12-|
G#|--------------------------------------------------------------------------------------|

D#|------------------------------------------------------------------------------|
A#|------------------------------------------------------------------------------|
F#|------------------------------------------------------------------------------|
C#|---------9----------------9--------------9------------------------------------|
G#|---------7----------------7--------------7-----------7h10p7\6-6h9p6\3-3h6p3\2-|
D#|-000-000---0-000-000-000---0-000-000-000---0-000-000--------------------------|
G#|------------------------------------------------------------------------------|

[GTR 2]
D#|-----------------------------------------------------------|
A#|-----------------------------------------------------------|
F#|-21-19-17h19p17-17h19p17----17h19p17-----------------------|
C#|-------------------------21----------21-19-18h19p18--------|
G#|----------------------------------------------------20-19\-|
D#|-----------------------------------------------------------|
G#|-----------------------------------------------------------|

D#|----------------------------------------------------------------------------------|
A#|----------------------------------------------------------------12-13-12----------|
F#|-------------------------------------------------------------12----------14-12-14-|
C#|----------------------------------------------------------------------------------|
G#|-\10---9---7h9p7---7--------12h14---15----14---12h14p12---10----------------------|
D#|-----0---0-------0----0-000-------0-----0----0----------0-------------------------|
G#|----------------------------------------------------------------------------------|

D#|-----------------------------------------------------------------------------------|
A#|-----------------------------------------------------------------------------------|
F#|-----------------------------------------------------------------------------------|
C#|---14---12h14p12---------14---12h14p12---------------------------------------------|
G#|-------------------14--------------------10----9-9/12/10---/14-14---12----12/14\12-|
D#|-0----0----------0-----0----0----------0-----0-----------0--------0-----0----------|
G#|-----------------------------------------------------------------------------------|

D#|-------------------------------------------------------------------------------------|
A#|-------------------------------------------------------------------------------------|
F#|-------------------------------------------------------------------------------------|
C#|---------9----------------9----------------9-----------------------------------------|
G#|---------10---------------10---------------10-----------10h14p10\9-9h13p9\7-7h10p7\6-|
D#|-000-000----0-000-000-000----0-000-000-000----0-000-000------------------------------|
G#|-------------------------------------------------------------------------------------|

[TRANSITION BREAKDOWN]
[GTR1]
D#|----------------------------|-----------------------------|
A#|----------------------------|-----------------------------|
F#|----------------------------|-----------------------------|
C#|----------------------------|-----------------------------|
G#|----------------------------|-----------------------------|
D#|-----000-----000--------000-|-000-000-000-000----000-000--|
G#|----------------------------|-----------------------------|

[GTR2]
D#|----------------------------|-----------------------------|
A#|----------------------------|-----------------------------|
F#|----------------------------|-----------------------------|
C#|----------------------------|-----------------------------|
G#|----------------------------|-----------------------------|
D#|-000-----000--------000-----|-000-000-000-000----000-000--|
G#|----------------------------|-----------------------------|

[BOTH GTRs]
D#|-------------------------------------------------------------------|
A#|-------------------------------------------------------------------|
F#|-------------------------------------------------------------------|
C#|-------------------------------------------------------------------|
G#|-------------------------------------------------------------------|
D#|-000-000-000-000---000-000---000-000-000-000-000---000-000-000-000-|
G#|-------------------------------------------------------------------|

D#|--------------------------------------------------------------|
A#|--------------------------------------------------------------|
F#|--------------------------------------------------------------|
C#|--------------------------------------------------------------|
G#|--------------------------------------------------------------|
D#|-000-000-000-000-000-000-000---000-000-000-000-000---000-000--|
G#|--------------------------------------------------------------|

[GTR1]
D#|--------------------------|
A#|--------------------------|
F#|--------------------------|
C#|-/14-------/13-----/9-----|
G#|--------------------------|
D#|-/12-------/11-----/7-----|
G#|--------------------------|

GTR2
D#|--------------------------|
A#|--------------------------|
F#|--------------------------|
C#|-/17-------/16-----/13----|
G#|--------------------------|
D#|-/15-------/14-----/11----|
G#|--------------------------|

[BACK TO VERSE]
[GTR 1]
D#|-----24-|----------------------------------------------------------|
A#|--------|----------------------------------------------------------|
F#|--------|----------------------------------------------------------|
C#|--------|----------------------------------------------------------|
G#|--------|----------------------------12-11-12-0-8-7-8-0-12-11-12-0-|
D#|-12/----|-5-4-5-0-8-7-8-0-12-11-12-0-------------------------------|
G#|--------|----------------------------------------------------------|

D#|----------------------------------------------------------------------|
A#|----------------------------------------------------------------------|
F#|----------------------------------------------------------------------|
C#|-12-11-12-0-15-14-15-12/14~--\9-/12-12/15-15/18-18\15-15\12-12/14-14~-|
G#|----------------------------------------------------------------------|
D#|----------------------------------------------------------------------|
G#|----------------------------------------------------------------------|

D#|-------------------------------------------------------------------|
A#|------------------------------------------------------17-16-17-----|
F#|-------------14/16----14-16-17-16-14-17~--17-16-17-14----------14--|
C#|-14p12-14----------14----------------------------------------------|
G#|----------12-------------------------------------------------------|
D#|-------------------------------------------------------------------|
G#|-------------------------------------------------------------------|

D#|-------------------------------------------------------------------|
A#|-18-17-15----------------------------------------------------------|
F#|----------17-16-14-------------------------------------------------|
C#|-------------------15-17-15-14-------------------------------------|
G#|-------------------------------15-17-15-14-12-14-11-12-------------|
D#|-------------------------------------------------------13-10-8-7-8-|
G#|-------------------------------------------------------------------|

D#|----------------------------|
A#|----------------------------|
F#|----------------------------|
C#|-------6-7-9-6-7---6--------|
G#|-5-7-8-----------8---7-8-5--|
D#|----------------------------|
G#|----------------------------|

[GTR 2]
D#|--------|-------------------------------------------------------|
A#|-----24-|-------------------------------------------------------|
F#|--------|-------------------------------------------------------|
C#|--------|-------------------------------------------------------|
G#|--------|-3-2-3-0-7-6-7-0-12-11-12-0-15-14-15-0-5-4-5-0-8-7-8-0-|
D#|-10/----|-------------------------------------------------------|
G#|--------|-------------------------------------------------------|

D#|--------------------------------------------------------------------|
A#|--------------------------------------------------------------------|
F#|--------------------------------------------------------------------|
C#|--------------------------------------------------------------------|
G#|-12-11-12-0-17-16-17-12/14~-11/14-14/17-17/20-20\17-17\14-14/15-15~-|
D#|--------------------------------------------------------------------|
G#|--------------------------------------------------------------------|

D#|------------------------------------------------------------------|
A#|------------------------------------------------------------------|
F#|-----------------------------------------14-13-14----17-16-17-----|
C#|-------------14h15----15/17p15p14----15~-----------15----------15-|
G#|-15-14-15-12-------12-------------17------------------------------|
D#|------------------------------------------------------------------|
G#|------------------------------------------------------------------|

D#|---------------------------------------------------------|
A#|---------------------------------------------------------|
F#|-19-17-16------------------------------------------------|
C#|----------19-17-15-14h15p14\12---------------------------|
G#|-------------------------------14h15p14-12-8h10p8p7------|
D#|----------------------------------------------------10\7-|
G#|---------------------------------------------------------|

D#|----------------------------------|-------|
A#|----------------------------------|-------|
F#|----------------------------------|--*6^--|
C#|-------------2-3-5-2-3---2--------|-------|
G#|-------2-3-5-----------5---3-5-2--|-------|
D#|-5-4-5----------------------------|-------|
G#|----------------------------------|-------|

[GTR1]
D#|------------------------------------------------|
A#|------------------------------------------------|
F#|---------------------------------------------6^-|
C#|------------------------------------------------|
G#|---------------------4^-------------------------|
D#|------------------------------------------------|
G#|-3-2-1-0---2^-1-0--0----3-2-1-0--0-2^-1-0--0----|

D#|------------------------------------------------------|-------|
A#|------------------------------------------------------|-------|
F#|---------------------------------------------------6^-|-------|
C#|------------------------------------------------------|-------|
G#|----------------------4^----------------------4^------|----0--|
D#|------------------------------------------------------|--0-0--|
G#|-3-2-1-0--0-2^-1-0--0----3-2-1-0--0-2^-1-0--0----0----|--0-0--|

[GTR2]
D#|------------------------------------------------|
A#|------------------------------------------------|
F#|------------------------------------------------|
C#|---------------------------------------------7^-|
G#|------------------------------------------------|
D#|---------------------5^-------------------------|
G#|-3-2-1-0---2^-1-0--0----3-2-1-0--0-2^-1-0--0----|

D#|------------------------------------------------------|-------|
A#|------------------------------------------------------|-------|
F#|------------------------------------------------------|-------|
C#|---------------------------------------------------7^-|-------|
G#|------------------------------------------------------|----0--|
D#|----------------------5^----------------------5^------|--0-0--|
G#|-3-2-1-0--0-2^-1-0--0----3-2-1-0--0-2^-1-0--0----0----|--0-0--|

[SWEEPS]
 D#|------------9h12p9---------9h12p9--------------------9h12p9----|
 A#|---------10--------10---10--------10--------------10--------10-|
 F#|-------9--------------9--------------9----------9--------------|
 C#|----11---------------------------------11----11----------------|
 G#|-12---------------------------------------12-------------------|
 D#|---------------------------------------------------------------|
 G#|---------------------------------------------------------------|

 D#|------9h12h15p12p9------------h9h12h15p12p9--------------------9h12h17-|
 A#|---10--------------h10----h10---------------10--------------10---------|
 F#|-9---------------------h9----------------------9----------9------------|
 C#|-------------------------------------------------11----11--------------|
 G#|----------------------------------------------------12-----------------|
 D#|-----------------------------------------------------------------------|
 G#|-----------------------------------------------------------------------|

GTR2 Plays line first, Then Guitar 1.
D#|----------------------------------------------|
A#|----------------------------------------------|
F#|----------------------------------------------|
C#|----------------------------------------------|
G#|----------------------------------------------|
D#|----------------------------------------------|
G#|-2p0-0-2p0-0--2p0-0-2p0-0--2p0-0-2p0-0-2p0-0--|

D#|-----------------------------------------------------------------------------------------------|
A#|-----------------------------------------------------------------------------------------------|
F#|-----------------------------------------------------------------------------------------------|
C#|-----------------------------------------------------------------------------------------------|
G#|-----------------------------------------------------------------------------------------------|
D#|-----------------------------------------------------------------------------------------------|
G#|-2p0-2p0-0-2p0-0--2p0-0-2p0-0--2p0-0-2p0-0-2p0-0--2p0-0-2p0-0--2p0-0-2p0-0--2p0-0-2p0-0-2p0-0--|

D#|------------------------------------------------------------------------------------------|
A#|------------------------------------------------------------------------------------------|
F#|------------------------------------------------------------------------------------------|
C#|------------------------------------------------------------------------------------------|
G#|------------------------------------------------------------------------------------------|
D#|-00000-00000---00000-00000---00000-00000-00000---00000-00000---00000-00000---00000-00000--|
G#|-00000-00000---00000-00000---00000-00000-00000---00000-00000---00000-00000---00000-00000--|

D#|------------------------------------------------------------------------------|
A#|------------------------------------------------------------------------------|
F#|------------------------------------------------------------------------------|
C#|-------------1-1-1--1-1-1---1-1-1--1-1-1---1-1-1--1-1-1--1-1-1---1-1-1--1-1-1-|
G#|-6-5-4-3-2-1-0-0-0--0-0-0---0-0-0--0-0-0---0-0-0--0-0-0--0-0-0---0-0-0--0-0-0-|
D#|-4-5-4-3-2-1-0-0-0--0-0-0---0-0-0--0-0-0---0-0-0--0-0-0--0-0-0---0-0-0--0-0-0-|
G#|---5-4-3-2-1-0-0-0--0-0-0---0-0-0--0-0-0---0-0-0--0-0-0--0-0-0---0-0-0--0-0-0-|

D#|------------------------------------------------------------------|
A#|------------------------------------------------------------------|
F#|------------------------------------------------------------------|
C#|-1-1-1--1-1-1---1-1-1--1-1-1----------1-1-1--1-1-1---1-1-1--1-1-1-|
G#|-0-0-0--0-0-0---0-0-0--0-0-0--0-------0-0-0--0-0-0---0-0-0--0-0-0-|
D#|-0-0-0--0-0-0---0-0-0--0-0-0--0-------0-0-0--0-0-0---0-0-0--0-0-0-|
G#|-0-0-0--0-0-0---0-0-0--0-0-0--0-1///--0-0-0--0-0-0---0-0-0--0-0-0-|

D#|-------------------------------------------------------------------------------|
A#|-------------------------------------------------------------------------------|
F#|-------------------------------------------------------------------------------|
C#|-1-1-1--1-1-1--1-1-1---1-1-1--1-1-1---1-1-1--1-1-1---1-1-1--1-1-1--1-1-1-------|
G#|-0-0-0--0-0-0--0-0-0---0-0-0--0-0-0---0-0-0--0-0-0---0-0-0--0-0-0--0-0-0---0-0-|
D#|-0-0-0--0-0-0--0-0-0---0-0-0--0-0-0---0-0-0--0-0-0---0-0-0--0-0-0--0-0-0---0-0-|
G#|-0-0-0--0-0-0--0-0-0---0-0-0--0-0-0---0-0-0--0-0-0---0-0-0--0-0-0--0-0-0---0-0-|

[GTR1]
D#|-12-10-8h10p8-8h10p8----12--10-8h10p8-8h10p8----12--10-8h10p8-8h10p8----8h10p8--------------------|
A#|---------------------10----------------------10----------------------12--------12-10-9h10p9-------|
F#|--------------------------------------------------------------------------------------------10-9--|
C#|--------------------------------------------------------------------------------------------------|
G#|--------------------------------------------------------------------------------------------------|
D#|--------------------------------------------------------------------------------------------------|
G#|--------------------------------------------------------------------------------------------------|

GTR2
D#|-15-13-12h13p12-12h13p12----15--13-12h13p12-12h13p12----15--13-12h13p12-12h13p12----12h13p12--|
A#|-------------------------13--------------------------13--------------------------15-----------|
F#|----------------------------------------------------------------------------------------------|
C#|----------------------------------------------------------------------------------------------|
G#|----------------------------------------------------------------------------------------------|
D#|----------------------------------------------------------------------------------------------|
G#|----------------------------------------------------------------------------------------------|

D#|----------------------|
A#|-15-13-12h13p12-------|
F#|----------------14-13-|
C#|----------------------|              [BACK TO VERSE]
G#|----------------------|
D#|----------------------|
G#|----------------------|

[OUTRO]

[GTR1]
D#|---------------------------------------------------------------|----24--|
A#|---------------------------------------------------------------|--------|
F#|--------------------12s----------------------------------------|--------|
C#|-----------------9s-----9s----------14s-----14s-13s----13s-----|--------|
G#|-------------10s-----------10s-/10s-----10s---------9s-----9s--|-9/-----|
D#|-000-000-000---------------------------------------------------|--------|
G#|---------------------------------------------------------------|--------|

[GTR2]
D#|-----------------------------------------------------------------|--------|
A#|-----------------------------------------------------------------|-----24-|
F#|-----------------------------------------------------------------|--------|
C#|-----------------------------------------------------------------|--------|
G#|---------------------14s-------------15s-----15s-14s-----14s-----|--------|
D#|-000-000-000-12s-15s-----15s-12s-12s-----12s---------11s-----11s-|-11/----|
G#|-----------------------------------------------------------------|--------|

[THE END]

************************************

| h  Hammer-on
| p  Pull-off
| ~  Vibrato
| /  Slide up
| \  Slide down
| *  Natural harmonic

************************************
Suggest correction
comments
print report bad tab
7 comments total. Showing first comments.
+1 reply
AlucardXIX 283 Jul 13, 2009 05:01 PM

Well man my only comment is that we both know this song is really in F Bb Eb Ab Db Gb Bb Eb :P I mean besides 2 parts this tab is damn amazing. Awesome job. (those 2 parts are when they use the 8th string haha)

+1 reply
AlucardXIX 283 Jul 15, 2009 04:55 PM

Actually no, you are right. I watched a video and sure enough they didnt even use the 8th string.

0 reply
SplitSoul 809 Jul 15, 2009 09:12 PM

haha. ;) Just make sure ya gimie a good rating :p

guest
You may want to rate the tab now too:
select rating
Wanna post a correction for this tab? Suggest correction