Oops, an error
Loading. Please wait.

Bread Crumbs And White Stones tab

version 1
version 1

Whole song

Interactive

6,789 views 3 this week
no commentswrite comment
1 2 3 4 5
x 3
add to favorites
×
Save as Personal and add changes to this tab that will be seen only by you. Learn more ›
×
You can save this tab as Personal to edit and correct it or add notes. All changes will be seen only by you. Learn more »
launch autoscroll
font size
0
reset
how to read this tab
guitar tuner
edit
Autoscroll
slow
fast
+/-
esc
set tempo
stop
"Bread Crumbs and White Stones"

BY: AFTER THE BURIAL

Transcribed by Joe Keller
www.youtube.com/user/v8eatr
jkguitar@comcast.net

Tabbed for playing on 7 string.
(8th string not used)

VIDEO:
http://www.youtube.com/watch?v=OY52Ulx-nOk

Please Do Not Copy without Permission.

THANKS AND ENJOY!


Tuning:

Ep
Bp
Gp
Dp
Ap
Ep
Bp


Key:
p = pull off
h = hammer on
* = A.H.
~ = vibrato
/ \ = slide up/down
^/v = bend up/down
s = speed pick


	[ INTRO ]
|--------------------------------------------------------------|
|--------------------------------------------------------------|
|--------------------------------------------------------------|
|-----9--------------9--------11--------12---------------------|
|---5---5-4------4-5--------7----7----9------------------------|
|-7---------7--5-------7--9--------10------10\-(0)-3-/10-10-10-|
|--------------------------------------------------------------|

 -------------------------------------------------------------------|
 ---------------------------------------------------15-14-----------|
 ------------------------------------------------15-------15--------|
 -----4-------5----4-7-5-------------------11/16-------------16-11~-|
 ---0---0---2---2--------7-5-9\--2-2--1-1---------------------------|
 -2-------3----------------------3-3--2-2---------------------------|
 -------------------------------------------------------------------|

 --------------------------------------------------------------|
 --------------------------------------------------------------|
 --------------------------------------------------------------|
 -----9--------------9--------11--------12---------------------|
 ---5---5-4------4-5--------7----7----9------------------------|
 -7---------7--5-------7--9--------10------10\-(0)-3-/10-10-10-|
 --------------------------------------------------------------|

 ---------------------------------------------------15-14-----------|
 ------------------------------------------------14-------14--------|
 ------------------------------------------11/15-------------15-11~-|
 -----4-------5----4-7-5--------------------------------------------|
 ---0---0---2---2--------7-5-9\--2-2--1-1---------------------------|
 -2-------3----------------------3-3--2-2---------------------------|
 -------------------------------------------------------------------|

	[ GTR 1 ]
|--------------------------------------------------------------|
|--------------------------------------------------------------|
|--------------------------------------------------------------|
|-----9--------------9--------11--------12---------------12----|
|---5---5-4------4-5--------7----7----9------------------------|
|-7---------7--5-------7--9--------10------10\-(0)-3-/10----10-|
|--------------------------------------------------------------|

 -------------------------------------------------------------------|
 ---------------------------------------------------15-14-----------|
 ------------------------------------------------15-------15--------|
 -----4-------5----4-7-5-------------------11/16-------------16-11~-|
 ---0---0---2---2--------7-5-9\--2-2--1-1---------------------------|
 -2-------3----------------------3-3--2-2---------------------------|
 -------------------------------------------------------------------|

	[ GTR 2 ]
|---------------------------------------------------------|
|---------------------------------------------------------|
|-----7--------------7--------9-------11-------------11---|
|---4---4--------2/4--------5---5---7---------------------|
|-5-------7-5--4-------5--7-------9------9~-(0)-5-/9----9-|
|---------------------------------------------------------|
|---------------------------------------------------------|

 -----------------------------------------------------15-14----------|
 --------------------------------------------------14-------14-------|
 -----6-------7----7/11p7------7\--4-4--3-3--11/15-------------15-11-|
 ---2---2---4---4---------11p7-----5-5--4-4--------------------------|
 -4-------5----------------------------------------------------------|
 --------------------------------------------------------------------|
 --------------------------------------------------------------------|

|------------------------------------------------------------------|
|------------------------------------------------------------------|
|------------------------------------------------------------------|
|------------------------------------------------------------------|
|------------------------------------------------------------------|
|------------------------------------------------------------------|
|-0-0--00--000-00--00--000-00--00--000-00--00--000-00--00--000-00--|

 ---------------------------------------------------------------|
 ---------------------------------------------------------------|
 ---------------------------------------------------------------|
 ---------------------------------------------------------------|
 ---------------------------------------------------------------|
 ---------------------------------------------------------------|
 -000-00-000-00--00--000-00--00--000-00--00--000-00--00--000-00-|

 ------------------------------------------------------------|
 ------------------------------------------------------------|
 ------------------------------------------------------------|
 ------------------------------------------------------------|
 ------------------------------------------------------------|
 ----------------------------------------------------------2-|
 -000-00-000-00--00--000-00--00--000-00--00--000-00--00--000-|

|-------------------------------------------------------------------|
|-------------------------------------------------------------------|
|-------------------------------------------------------------------|
|---------------9---------------------------------------------------|
|-------------------------------12---------------10---------------9-|
|----7---7h10--------7---7h10---------7---7h10---------7---7h10-----|
|-00---0------0---00---0------0----00---0------0----00---0------0---|

 -------------------------------------------------------------------|
 -------------------------------------------------------------------|
 -------------------------------------------------------------------|
 -----------------------------------------------------------------9-|
 ---------------9---------------10---------------12-----------------|
 ----7---7h10--------7---7h10---------7---7h10---------7---7h10-----|
 -88---8------8---88---8------8----88---8------8----88---8------8---|

 ------------------------------------------------------------------|
 ------------------------------------------------------------------|
 ------------------------------------------------------------------|
 ---------------9---------------7----------------------------------|
 -----------------------------------------------10---------------9-|
 ----7---7h10--------7---7h10--------7---7h10---------7---7h10-----|
 -55---5------5---55---5------5---55---5------5----55---5------5---|

 -----------------------------------------------------|
 -----------------------------------------------------|
 --------------------------------------------------66-|
 --------------------------------------------55-88----|
 --------------5-4-------------5-------44-77----------|
 ----5---5p2---------5---5p2-----33-66----------------|
 -33---3-----3-----3---3-----3------------------------|

 -------------------------------------------------------------------|
 -------------------------------------------------------------------|
 -------------------------------------------------------------------|
 ---------------9---------------------------------------------------|
 -------------------------------12---------------10---------------9-|
 ----7---7h10--------7---7h10---------7---7h10---------7---7h10-----|
 -00---0------0---00---0------0----00---0------0----00---0------0---|

 -------------------------------------------------------------------|
 -------------------------------------------------------------------|
 -------------------------------------------------------------------|
 -----------------------------------------------------------------9-|
 ---------------9---------------10---------------12-----------------|
 ----7---7h10--------7---7h10---------7---7h10---------7---7h10-----|
 -88---8------8---88---8------8----88---8------8----88---8------8---|

 ------------------------------------------------------------------|
 ------------------------------------------------------------------|
 ------------------------------------------------------------------|
 ---------------9---------------7----------------------------------|
 -----------------------------------------------10---------------9-|
 ----7---7h10--------7---7h10--------7---7h10---------7---7h10-----|
 -55---5------5---55---5------5---55---5------5----55---5------5---|

 --------------------------------|
 --------------------------------|
 --------------------------------|
 --------------------------------|
 --------------5-4-------------5-|
 ----5---5p2---------5---5p2-----|
 -33---3-----3-----3---3-----3---|

|---------------------------------------------------------|
|-11p8--------8-/14-11----------11-/17p14-----------------|
|------9----9----------12----12-----------15----15\12-15\-|
|--------11---------------14-----------------17-----------|
|---------------------------------------------------------|
|---------------------------------------------------------|
|---------------------------------------------------------|

	(notice at the end bar theres 5 opens)
|--------------------------------------------------------------------------|
|--------------------------------------------------------------------------|
|--------------------------------------------------------------------------|
|--------------------------------------------------------------------------|
|--------------------------------------------------------------------------|
|--------------------------------------------------------------------------|
|-0000-0-0-0000-0-0-0000-0-0-0000-0-0-0000-0-0-0000-0-0-0000-0-0-00000-0-0-|

|-------------------------------------------------------------------------------------|
|-------------------------------------------------------------------------------------|
|-------------------------------------------------------------------------------------|
|-------------------------------------------------------------------------------------|
|-------------------------------------------------------------------------------------|
|-------------------------------------------------------------------------------------|
|-1-00--000-1-00-1-00--0-1-00-000-1-0-1-00--00-1-00--000-1-0-1-00--00-1-00--000-1-(0)-|

   (the very last part changes timing a bit)
|----------------------------------------------|
|----------------------------------------------|
|----------------------------------------------|
|----------------------------------------------|
|----------------------------------------------|
|----------------------------------------------|
|-1-00--000-1-00-1-00--0-1-00--000-1-00-1-00-0-|

            
            
Suggest correction
Creating personal tab
Creating personal tab
You can edit any tab online and save it as your Personal.

You can edit, replace or remove any tab part or add personal notes – all changes will be seen only by you.

Personal tabs can be accessed anytime from any device, even offline.
Learn more »
Give kudos to tab author, rate the tab!
1 2 3 4 5
comments
print report bad tab
guest
You may want to rate the tab now too:
select rating
Wanna post a correction for this tab? Suggest correction