Oops, an error
Loading. Please wait.

Drifts Tab

version 1
version 1

Whole song

Interactive

4,218 views 6 this week
9 commentsread comments
1 2 3 4 5
please rate
add to favorites
launch autoscroll
font size
0
reset
how to read this tab
guitar tuner
Tab Pro tools
  • play this tab
  • loop segment
  • change instrument
  • show fretboard
  • metronome
×
Best way to learn
"Drifts"
Autoscroll
slow
fast
+/-
esc
set tempo
stop
Contributor
Difficulty
Tuning
intermediate
B F# B E G# C#
-------------------------------------------------------------------------------
After the Burial : Drifts
-------------------------------------------------------------------------------

Tabbed by: Foster (bornofmaya)
Website: http://www.last.fm/user/bornofmaya

Notes: I used this video for help : http://www.youtube.com/watch?v=-DmxOzYuewY. I 
will tab the solo soon.


Intro Riff (0:00)

|-------------------------|
|-------------------------|
|-----11---13-10-----13+~-|
|-0-0----0-------11-------|
|-------------------------|
|-------------------------|
  * *    *

Riff 1 (0:02)
Repeat: x2
Notes: follow the rhythm of the song.

|----------------------------------------------------------------|
|----------------------------------------------------------------|
|----------------------------------------------------------------|
|-12-12-11-12-14-12-11-9--9--12-12-11-11-14-14-12-12-14-12-14-12-|
|-14-14-14-14-14-14-13-11-11-11-11-13-13-13-13-13-13-13-13-13-13-|
|----------------------------------------------------------------|
     *     *     *        *     *     *     *     *     *     *

|-------------------------------------------------------------------|
|-------------------------------------------------------------------|
|----------------------------12----14----12----12-12-11-12-12-14-12-|
|-12-12-11-12-14-12-11-12-12-12-12-12-12-12-12-14-14-14-14-14-14-14-|
|-14-14-14-14-14-14-13-10-10-10-10-10-10-10-10----------------------|
|-------------------------------------------------------------------|
     *     *     *        *     *     *     *     *     *     *

|--------------------|
|--------------------|
|-----11---13-10-----|
|-0-0----0-------11~-|
|--------------------|
|--------------------|
  * *    *

(0:30)

|------------------------------------------|
|------------------------------------------|
|------------------------------------------|
|-4--------------4-------------------------|
|-4--------------4-------------------------|
|-4-444444444444-4-4-4-4-4-4-4-4-4-4-4-4-4-|
    ************   * * * * * * * * * * * *

Riff 2 (0:35)
Pattern: (A x2, B) x4
Notes: on the 2nd run tap on the 24 instead of picking 12 at the end.

A            B
|------------|----------------------14----14p12----------------------------|
|------------|--------12---12----------------------14h15----14p12-10-12-10-|
|-11---------|-11-------------11-11----11-------11-------11----------------|
|----9-7-7-9-|----7-9----9-------------------------------------------------|
|------------|-------------------------------------------------------------|
|------------|-------------------------------------------------------------|

(0:57)

|----------------------15-----17-19-17-19~-|
|-14^-14~-14141414-14^----14^--------------|
|------------------------------------------|
|------------------------------------------|
|------------------------------------------|
|------------------------------------------|

Riff 3 (1:02)

|-------------------------|-------------------------|
|-------------------------|-------------------------|
|-------------------------|-------------------------|
|-------------------------|-------------------------|
|-7~----------7~----------|-------------------------|
|----9-7~-9-------9-10~-9-|-12~-9-7~-9---12~-9-7~-9-|

(1:23)

|----------------------|
|----------------------|
|----------------------|
|----------------------|
|-6~----------3~-------|
|-------5~----------4~-|
  L     R     L     R

Riff 4 (1:26)
Pattern: (A x3, B) x2

A                       B
|-----------------------|-----------------------------|
|-----------------------|-----------------------------|
|-----------------------|-----------------------------|
|-----------------------|-----------------------------|
|-222--222--222-222-222-|-222--3~----333----2~----222-|
|-444--444--444-444-444-|-444--------555----------444-|
                               L     R      L     R

Solo (1:52)
Pattern: A x11, B
Notes: solo not complete.

|-------------------9-12-1111^~-|
|-------------------------------|
|-8^--8~-8-8~-8~-8~-------------|
|-------------------------------|
|-------------------------------|
|-------------------------------|

A                       B
|-----------------------|-----|
|-----------------------|-----|
|-----------------------|-----|
|-----------------------|-----|
|-222--222--222-222-222-|-222-|
|-444--444--444-444-444-|-444-|
  ***  ***  *** *** ***   ***

Riff 5 (2:24)
Notes: follow the rhythm of the song.

|-------------------------------------------|
|-------------------------------------------|
|-------------------------------------------|
|-12-12-12-12-12-12-12-12-11-11-12-12-14-14-|
|-14-14-14-14-14-14-14-14-14-14-14-14-14-14-|
|-------------------------------------------|
     *     *     *     *     *     *     *

|-------------------------------------------------------------|
|-------------------------------------------------------------|
|-------------------------------------------------------------|
|-9--9--9--9--9--9--9--9--11-11-11-11-11-11-11-11-11-11-11-11-|
|-11-11-11-11-11-11-11-11-12-12-12-12-13-13-13-13-13-13-13-13-|
|-------------------------------------------------------------|
     *     *     *     *     *     *     *     *     *     *

(2:34)

|-------------------------------------------------|
|-------------------------------------------------|
|-------------------------------------------------|
|-12-12-12-12-12-12-12-12-11-11-12-12-14-14-14-14-|
|-14-14-14-14-14-14-14-14-14-14-14-14-14-14-14-14-|
|-------------------------------------------------|
     *     *     *     *     *     *     *     *

|---------------------------------------------------------------------|
|---------------------------------------------------------------------|
|---------------------------------------------------------------------|
|-9--9--9--9--11-11-12-12-11-11-9--9--9-9-9-9-9--9--11-11-12-12-14-14-|
|-10-10-10-10-12-12-14-14-12-12-10-10-7-7-7-7-10-10-12-12-14-14-16-16-|
|---------------------------------------------------------------------|
     *     *     *     *     *     *    *   *     *     *     *     *

(2:45)

|-------------------------------------------|
|-------------------------------------------|
|-------------------------------------------|
|-12-12-12-12-12-12-11-11-12-12-11-11-12-12-|
|-14-14-14-14-14-14-14-14-14-14-14-14-14-14-|
|-------------------------------------------|
     *     *     *     *     *     *     *

|---------------------------------------------------------------------------|
|---------------------------------------------------------------------------|
|---------------------------------------------------------------------------|
|-9--9--9--9--11-11-12-12-11-11-9--9--9-9-9-9-9--9--11-11-12-12-14-14-12-12-|
|-10-10-10-10-12-12-14-14-12-12-10-10-7-7-7-7-10-10-12-12-14-14-16-16-14-14-|
|---------------------------------------------------------------------------|
     *     *     *     *     *     *    *   *     *     *     *     *     *

(2:59)

|-----------------|
|-----------------|
|-----------7/11~-|
|-4~--------x-x---|
|-4~--------5/9~--|
|-4~--------------|

Breakdown (3:06)
Pattern: (A x3, B) x8
Notes: follow the rhythm of the song, I'm not sure about these.

A                      B
|----------------------|-------|
|----------------------|-------|
|----------------------|-------|
|----------------------|-------|
|----------------------|-------|
|-44-44-444444-44-44-4-|-44-44-|
  ** ** ****** ** ** *   ** **

(3:44)
Pattern: (A x3, B) until end

A                    B
|----------------------|---------|
|----------------------|---------|
|----------------------|---------|
|----------------------|---------|
|-44-44-444444-44-44-4-|-44-44-4-|
|-66-66-666666-66-66-6-|-66-66-6-|
  ** ** ****** ** ** *   ** ** *
comments
We did not receive enough feedback on this tab! Please rate:
print report bad tab
1 2 3 4 5
9 comments total. Showing first comments.
0 reply
AlucardXIX wrote on August 10 2009, 02:55 pm

Not bad dude not bad, a few notes sound pretty off, but it's a damn good basis to start with. Cant wait to work this out on my 8!

0 reply
DestructoX wrote on August 11 2009, 11:15 am

i have updated the tab, i fixed a lot of notes that were wrong.

0 reply
josh-josh-josh wrote on September 13 2009, 12:42 am

F# r sumthin like that.. on an eight stringg :PP hahahah but seeing as how like 90% of people dont own an 8sring, i tihnk this is gooodd ;)

I want to post or [tab]
guest
You may want to rate the tab now too:
select rating
Please do not post tabs as comments. Select "correction" instead!