Oops, an error
Loading. Please wait.

Laurentian Ghosts intro tab

version 1
version 1

Intro

  • This is the intro for After The Burial's "Laurenti... Show more

Interactive

448 views 3 this week
no commentswrite comment
1 2 3 4 5
2 more votes to show rating
add to favorites
×
Save as Personal and add changes to this tab that will be seen only by you. Learn more ›
×
You can save this tab as Personal to edit and correct it or add notes. All changes will be seen only by you. Learn more »
launch autoscroll
font size
0
reset
how to read this tab
guitar tuner
edit
Autoscroll
slow
fast
+/-
esc
set tempo
stop
About this tab version
This is the intro for After The Burial's "Laurentian Ghosts." The song was originally written for a seven string guitar, however, the intro does not utilize the bottom string, leaving us with the typical 6 strings found on an acoustic guitar. Really the only hard part for this intro comes in the third section when you have to hit the note (4th fret) on the high D# string. It takes some practice but once you get it figured out it's really fun to play. Was this info helpful? Yes No
[Intro]
D#|-------------------|-----------------|-------------------|--------------------|
A#|-------5---4-------|-7-----5-----4---|-------5---4-------|-7-----9-----9/10\9-|
F#|-------------------|-----------------|-------------------|--------------------|
C#|---4/6---6---6---6-|---6-----6-----6-|---6/7---7---7---7-|---7-----9----------|
G#|-------------------|-----------------|-0-------------0---|-----0-----0--------|
D#|-0-------------0---|-----0-----0-----|-------------------|--------------------|

D#|-------4-----------|-----------------|-------------------|--------------------|
A#|-----------7-------|-5-----4/5\4---5-|-------5---4-------|--------------------|
F#|---4/6---4---4---4-|---4---------4---|-------------------|-6-----4------------|
C#|-------------------|-----------------|---6/7---7---7---7-|---7-----7-6--------|
G#|-4-------------4---|-----4-----------|-0-------------0---|-----0--------------|
D#|-------------------|-----------------|-------------------|--------------------|

D#|-------------------|-----------------|-------------------|--------------------|
A#|-------5---4-------|-7-----5-----4---|-------5---4-------|-7-----9-----9/10\9-|
F#|-------------------|-----------------|-------------------|--------------------|
C#|---4/6---6---6---6-|---6-----6-----6-|---6/7---7---7---7-|---7-----9----------|
G#|-------------------|-----------------|-0-------------0---|-----0-----0--------|
D#|-0-------------0---|-----0-----0-----|-------------------|--------------------|

D#|-------4-----------|-----------------|----------------------------------------|
A#|-----------7-------|-5-(let ring)----|--4/5\4---5-(let ring)------------------|
F#|---4/6---4---4---4-|-----------------|--------4-------------------------------|
C#|-------------------|-----------------|----------------------------------------|
G#|-4-------------4---|-----------------|----------0-(let ring)------------------|
D#|-------------------|-----------------|----------------------------------------|


************************************

| /  Slide up
| \  Slide down

************************************

            
            
Suggest correction
Creating personal tab
Creating personal tab
You can edit any tab online and save it as your Personal.

You can edit, replace or remove any tab part or add personal notes – all changes will be seen only by you.

Personal tabs can be accessed anytime from any device, even offline.
Learn more »
Give kudos to tab author, rate the tab!
1 2 3 4 5
comments
print report bad tab
guest
You may want to rate the tab now too:
select rating
Wanna post a correction for this tab? Suggest correction