Oops, an error
Loading. Please wait.

Pi The Mercury God Of Infinity Tab

version 1
version 1

Intro

Whole song

Interactive

2,171 views 1 this week
no commentswrite comment
1 2 3 4 5
please rate
add to favorites
launch autoscroll
font size
0
reset
how to read this tab
guitar tuner
Autoscroll
slow
fast
+/-
esc
set tempo
stop
Help us to improve Ultimate-Guitar.com Take our survey!
×
Author
Difficulty
Tuning
intermediate
D# G# C# F# A# D#
-------------------------------------------------------------------------------
                             PI (THE MERCURY GOD OF INFINITY) - After the Burial
-------------------------------------------------------------------------------
Tabbed by: Adrian Urban
Email: -

Tuning: Half step down (D#G#C#F#A#D#)



      E  E  E  E  E  E       Q    E  E  E  E     Q    E  E  E  E   
D#||--------------------||--------8--------7--|--5----0--------1--|
A#||-----5--6--------4--||---5-------5--------|-------------------|
F#||--------------------||*-------------5-----|----------2--------|
C#||--------------------||*-------------------|-------------------|
G#||--------------------||---0----------------|-------3-----0-----|
D#||--------------0-----||--------------------|--0----------------|


  Q    E  E  E  E     E  E  Q    E  E     Q    E  E  E  E     Q    E  E  E  E   
--0----------------|-----0-------------|--0----7--------5--|--4-------------0--|
----------3--------|--------6----------|-------0-----0--6--|--5----0-----------|
-------------4-----|----------------8--|-------7--7--------|----------2--1-----|
-------2--------3--|-------------------|-------6-----------|-------------------|
-------------------|-------------------|-------------------|-------------------|
--4----------------|--0----------------|--7----------------|--0----------------|


  E  E   E  E  E  E     E  E  E  E  E  E     Q    E  E  E  E   
---------------------|-----0--1-----------|-------8--------7--|
--3------------1-----|-----------------4--|--5-------5--------|
------------------1--|--2--------3--4-----|--5----------5-----|
-----1h--2--3--4-----|--------------------|-------------------|
--0------------------|--------------------|--0----------------|
---------------------|--------------------|-------------------|


  E   E  E  E  E  E     E  E   E  E  E   E     E  E  E   E  E  E   
--6------5--------3--|--3------------1------|-----1------------1--|
--3------2-----------|---------------0h--2--|--3-----3p--0--3-----|
--3------2-----2--3--|--3--1h--2--3---------|--------2------------|
------------2--------|--0-------------------|--------3------------|
---------0-----------|----------------------|---------------------|
--3h--4--------------|----------------------|---------------------|


  E  E  E  E  E  E     Q    E  E  E  E     Q    E  E  Q     
--0--------------0--|-------------------|------------------|
--------1-----------|--3-------1-----0--|------------------|
-----------2--------|--1----------------|--2---------------|
-----2--------2-----|--3----2-----0-----|--2-------2-------|
--------------------|--2----------------|--3----------3----|
--0-----------------|--0----------------|--5---------------|


  Q    E  E  E  E       E  E  E  E  E  E    
-------0--1---------||--------------------||
----------------4---||-----2--3--------4--||
-------------------*||-----2--4--------5--||
-------------------*||--------------------||
--------------------||--------------------||
--0----------0------||--0-----------0-----||




Duration Legend
---------------
W - whole
H - half
Q - quarter
E - 8th
S - 16th
T - 32nd
X - 64th
. - note dotted
|-n-|  - n-tuplets


Tablature Legend
----------------
L - tied note
x - dead note
g - grace note
(n) - ghost note
> - accentuded note
NH - natural harmonic
AH - artificial harmonic
TH - tapped harmonic
SH - semi harmonic
PH - pitch harmonic
h - hammer on
p - pull off
b - bend
br - bendRelease
pb - preBend
pbr - preBendRelease
brb - bendReleaseBend
\n/ - tremolo bar dip
\n - tremolo bar dive
-/n - tremolo bar Release up
/n\ - tremolo bar inverted dip
/n - tremolo bar return
-\n - tremolo bar Release down
S - shift slide
s - legato slide
/ -  slide into from below or out of upwards
\ -  slide into from above or out of downwards
~ - vibrato
W - wide vibrato
tr - trill
TP - tremolo picking
T - tapping
S - slap
P - pop
< - fade in
^ - brush up
v - brush down
Suggest correction
What's this?
You can suggest a correction to this tab. Community and Mods will review your correction and vote to approve or reject it.
comments
We did not receive enough feedback on this tab! Please rate:
print report bad tab
1 2 3 4 5
guest
You may want to rate the tab now too:
select rating
Please do not post tabs as comments. Select "correction" instead!