Oops, an error
Loading. Please wait.

Sleeper Tab

3,606 views 1 this week
1 commentread comment
1 2 3 4 5
excellent!
x 5
add to favorites
launch autoscroll
font size
0
reset
how to read this tab
guitar tuner
Autoscroll
slow
fast
+/-
esc
set tempo
stop
Help us to improve Ultimate-Guitar.com Take our survey!
×
Author
Difficulty
Tuning
intermediate
D# G# C# F# A# D#
"Sleeper"

BY: AFTER THE BURIAL

Transcribed by Joe Keller
jkguitar@comcast.net
youtube.com/v8eatr

Tabbed for playing on 7 string.
(8th string not used)

!VIDEO!
http://www.youtube.com/watch?v=aMSizI6HtKM

Please Do Not Copy without Permission.

THANKS AND ENJOY!


Tuning:

Ep
Bp
Gp
Dp
Ap
Ep
Bp


Key:
p = pull off
h = hammer on
* = A.H.
~ = vibrato
/ \ = slide up/down
^/v = bend up/down
s = speed pick

Pretty cut and dry here.
Keep it clean and simple.
Not a very complicated song, its the breakdowns that get ya.

        [Intro]
|---------------------------------|----------------------------------------------|
|---------------------------------|----------------------------------------------|
|---------------------------------|----------------------------------------------|
|---------------------------------|----------------------------------------------|
|---------8---------7-------7-----|----------7-----7--------7--------7-----------|
|---------------------------------|----------7---------------------------------7-|
|-555-555---555-5-5---555-5---6^v-|-555-5----5---5---6^v--5---6^v--5---6^v--55-5-|


|------------------------------------------------------------------|
|------------------------------------------------------------------|
|------------------------------------------------------------------|
|------------------------------------------------------------------|
|---------8---------7-------7--------------8---------7-------7-----|
|------------------------------------------------------------------|
|-555-555---555-5-5---555-5---6^v--555-555---555-5-5---555-5---6^v-|

 ---------------------------------------------------------|-------------------------|
 ---------------------------------------------------------|-------------------------|
 ---------------------------------------------------------|-------------------------|
 ---------7---------6----------7-7------------------------|-7-7---------------------|
 ------------------------------8-8--7-7-------------------|-8-8--7-7----------------|
 ------------------------------6-6--5-5--10-10-8-8/10-8-7-|-6-6--5-5--10-10-8-8\7-7-|
 -555-555---555-5-5---555-5-55-----------8--8--6-6/8--6-5-|-----------8--8--6-6\5-5-|

|-----------------------------------------------|
|-----------------------------------------------|
|-----------------------------------------------|
|-----------------------------------------------|
|-----------------------------------------------|
|-----------------------------------------------|
|-4-44-4-1-44-55-44-55-44-4-44-4-1-44-55-55-4^v-|

 ---------------------------------------------------------|
 ---------------------------------------------------------|
 ---------------------------------------------------------|
 ---------------------------------------------------------|
 ---------------------------------------------------------|
 -----------------------------------------------------7---|
 -55-4-44-4-1-44-55-44-55-44-4-44-4-1-4-4-55-55-4^v-5---5-|

 -----------------------------------------------|
 -----------------------------------------------|
 -----------------------------------------------|
 -----------------------------------------------|
 -----------------------------------------------|
 -----------------------------------------------|
 -4-44-4-1-44-55-44-55-44-4-44-4-1-44-55-55-4^v-|

 ---------------------------------------------------------|
 ---------------------------------------------------------|
 ---------------------------------------------------------|
 ---------------------------------------------------------|
 ---------------------------------------------------------|
 -----------------------------------------------------7---|
 -55-4-44-4-1-44-55-44-55-44-4-44-4-1-4-4-55-55-4^v-5---5-|

|-------------------------------------------------------------------------------------|
|-------------------------------------------------------------------------------------|
|-------------------------------------------------------------------------------------|
|-------------------------------------------------------------------------------------|
|-------------------------------------------------------------------------------------|
|-------------------------------------------------------------------------------------|
|-5555555-55-55555-5555-5-55555-55-55555-55555-5-555555-55-555555-5555-5-5555-55-5555-|

-------------------------------------------------------------------------------------|
-------------------------------------------------------------------------------------|
-------------------------------------------------------------------------------------|
-------------------------------------------------------------------------------------|
-------------------------------------------------------------------------------------|
-------------------------------------------------------------------------------------|
-5555555-55-55555-5555-5-55555-55-55555-55555-5-555555-55-555555-5555-5-5555-55-5555-|

|----------------------------------------------------------------------|
|----------------------------------------------------------------------|
|----------------------------------------------------------------------|
|------------------------------------------------------------9----9-12-|
|---------9---------8-------8-----------------8----8-11-8-11---11------|
|---------------------------------777-10-7-10---10---------------------|
|-666-666---666-6-6---666-6---7^v--------------------------------------|

|------------------------------------------------------------------|
|------------------------------------------------------------------|
|------------------------------------------------------------------|
|------------------------------------------------------------------|
|---------8---------7-------7--------------8---------7-------7-----|
|------------------------------------------------------------------|
|-555-555---555-5-5---555-5---6^v--555-555---555-5-5---555-5---6^v-|

 ---------------------------------------------------------|
 ---------------------------------------------------------|
 ---------------------------------------------------------|
 ---------7---------6----------7-7------------------------|
 ------------------------------8-8--7-7-------------------|
 ------------------------------6-6--5-5--10-10-8-8/10-8-7-|
 -555-555---555-5-5---555-5-55-----------8--8--6-6/8--6-5-|

|--------------------------------------------------------------|
|--------------------------------------------------------------|
|--------------------------------------------------------------|
|--------------------------------------------------------------|
|--------------------------------------------------------------|
|--------------------------------------------------------------|
|-555-555--5-555--555-5--555-555--5-555--555-5--555-555--5-555-|

 -----------------------------------|
 -----------------------------------|
 -----------------------------------|
 -----------------------------------|
 -----------------------------------|
 ----------------------------8--8-7-|
 -555-5--555-5--555-5--555-5-6--6-5-|

|----------------------------------------------------------------------|
|----------------------------------------------------------------------|
|----------------------------------------------------------------------|
|-----10---------------9---7-------------10---------------9---7--------|
|-7-8----8-7^v-----7-8---7---7-10-7--7-8----8-7^v-----7-8---7---7-10-7-|
|---------------10---------------------------------10------------------|
|----------------------------------------------------------------------|

 ------------------------------------------------------------------------|
 ------------------------------------------------------------------------|
 ------------------------------------------------------------------------|
 -----10---------------9---7-------------10------------------------------|
 -7-8----8-7^v-----7-8---7---7-10-7--7-8----8-7^v--5-7h8p7p5-7h8p7p5-8-7-|
 ---------------10-------------------------------------------------------|
 ------------------------------------------------------------------------|

 ----------------------------------------------------------------------|
 ----------------------------------------------------------------------|
 ----------------------------------------------------------------------|
 -----10---------------9---7-------------10---------------9---7--------|
 -7-8----8-7^v-----7-8---7---7-10-7--7-8----8-7^v-----7-8---7---7-10-7-|
 ---------------10---------------------------------10------------------|
 ----------------------------------------------------------------------|

 ---------------------------------------------------------------------------|
 ---------------------------------------------------------------------------|
 ---------------------------------------------------------------------------|
 -----10---------------9---7-------------10---------------------------------|
 -7-8----8-7^v-----7-8---7---7-10-7--7-8----8-7^v--5-7h8p7p5-10h12p10p8-8-7-|
 ---------------10----------------------------------------------------------|
 ---------------------------------------------------------------------------|
Suggest correction
What's this?
You can suggest a correction to this tab. Community and Mods will review your correction and vote to approve or reject it.
comments
print report bad tab
1 comment total.
0 reply
WTRshred 14 wrote on January 28 2011, 07:28 pm

Awesome. are you gonna finish roads?

guest
You may want to rate the tab now too:
select rating
Please do not post tabs as comments. Select "correction" instead!