Oops, an error
Loading. Please wait.

Stained-Glass Expectations Tab

339 views 1 this week
3 commentsread comments
1 2 3 4 5
please rate
add to favorites
launch autoscroll
font size
0
reset
how to read this tab
guitar tuner
Autoscroll
slow
fast
+/-
esc
set tempo
stop
Help us to improve Ultimate-Guitar.com Take our survey!
×
Author
Tuning
D A D G B E
Artist: After the Tragedy
Song: Stained-Glass Expectations
Album: The Chance of Disorder
Tuning: Dropped D

This song is so much fun to play. If you know the song, you won’t have any problems.

Intro (Lead Guitar)
E]-----------------------------------------]
B]-----------------------------------------]                               
G]----------------2-2---4------------------]
D]-------4---4b--------------Repeat this 6x]                               
A]--2-2----2-------------------------------]                               
D]-----------------------------------------]

Intro (Rhythm Guitar) Enters after Lead plays part 2x
E]-----------------------------------------]
B]-----------------------------------------]
G]--44-4-----------------------------------]
D]--44-4---555---44----------Play this 4x--]
A]--22-2---555---44------------------------]                               
D]---------555---44------------------------]

Intro (Lead Guitar) This is played just before the verse
E[-------------------------------------------]
B]-------------------------------------------]
G]------2-2----------------------------------]
D]----4-----0--------Play this 2x than out---]
A]--2---------4------------------------------]
D]-------------------------------------------]

Intro (Rhythm Guitar)
E]---------------------------------------------
B]---------------------------------------------
G]---4---4---4---4-4-4---[4p4p4p4p-------------]
D]---4---4---4---4-4-4---[4p4p4p4p-5p5p5p-4p4p-] Play this portion faster 
A]---2---2---2---2-2-2---[2p2p2p2p-5p5p5p-4p4p-] than you normally would.
D]-----------------------[---------5p5p5p-4p4p-]<------------

Verse Rhythm Guitar Only
E]---------------]        E]------------------------------
B]---------------]        B]------------------------------
G]--4444---------]        G]--4--4----------[4444---------]
D]--4444-55-444--]Play 4x D]--4--4--55-444--[4444-55-444--]Play this 3x
A]--2222-55-444--]        A]--2--2--55-444--[2222-55-444--]
D]-------55-444--]        D]--------55-444--[-----55-444--]

Chorus (Lead Guitar)
E]----------------------]
B]----------------------]
G]-------------2-2-4----]
D]------4---4b----------]Play 5x
A]--2-2---2-------------]
D]----------------------]

Chorus (Rhythm Guitar)
E]-----------------------]
B]-----------------------]
G]--44-4-----------------]Play 4x
D]--44-4-555-44----------]
A]--22-2-555-44----------]
D]-------555-44----------]

Intro Into 2nd Verse
E]-----------------------------]
B]-----------------------------]
G]--4p4p4p4p4p4p---------------]
D]--4p4p4p4p4p4p-5p5p5p-4p4p4p-]
A]--2p2p2p2p4p4p-5p5p5p-4p4p4p-]
D]---------------5p5p5p-4p4p4p-]

Verse 2 (Same as First)

Chorus 2 (Same as First)

Bridge (Rhythm Guitar)
E]--------------------------------------xxxxxx--]
B]--------------------------------------xxxxxx--]
G]--------------------------------------xxxxxx--]
D]7s9999-7s9999-00000000-22222222-55555-xxxxxx--]
A]7s9999-7s9999-00000000-22222222-55555-xxxxxx--]
D]7s9999-7s9999-00000000-22222222-55555-xxxxxx--]

Bridge cont.
E]-----------------------------------------------]
B]-----------------------------------------------]
G]-----------------------------------------------]
D]--99999999-00000000-22222222-2s555-55s4--4-----]
A]--99999999-00000000-22222222-2s555-55s4--4-----]
D]--99999999-00000000-22222222-2s555-55s4--4-----]

Intro From Bridge Into 3rd Verse
E]-----------------------------]
B]-----------------------------]
G]--4p4p4p4p4p4p---------------]
D]--4p4p4p4p4p4p-5p5p5p-4p4p4p-]
A]--2p2p2p2p4p4p-5p5p5p-4p4p4p-]
D]---------------5p5p5p-4p4p4p-]

Verse 3(Play this First)          (End On This)
E]---------------]         E]--------------------------]
B]---------------]         B]--------------------------]
G]--4444---------]         G]--4-4-4-------------------]Play 4x On last time
D]--4444-55-444--]Play 4x  D]--4-4-4-5-4-4-------------] time, let of chord
A]--2222-55-444--]         A]--2-2-2-5-4-4-------------] to make it ring.
D]-------55-444--]         D]--------5-4-4-------------]
                                                        
That's it!!!! It's an easy tab for anyone to play. Any questions, comments or
feedback feel free to e-mail me at controfox44@hotmail.com. Thanks. Hector Tabbed This.

This is the key I used:
p=palm mute
s=slide
b=bend string 
Suggest correction
Give kudos to tab author, rate the tab!
1 2 3 4 5
comments
print report bad tab
3 comments total.
0 reply
Angelicc 38 wrote on May 26 2006, 10:31 pm

e)----------------------------|
b)----------------------------|
g)-----------------4-4-2-2-4--|
d)---------4h5p4-4~-----------|
a)-2-2-2-2--------------------|
e)----------------------------|
PM x x x x x x x x x

This sounded a little closer to the song than the intro you had, i could be wrong. Good tab!

0 reply
Huston982 10 wrote on November 20 2007, 12:51 am

This is the best way i could figure to play the intro but great
tab

e--------------------------|
b--------------------------|
g----------------2---2---4-|
d--------4-4h5p4--4-4-4
-4--|
a-2-2-2-2------------------|
E--------------------------|
pm ** *** **

0 reply
Huston982 10 wrote on November 20 2007, 12:52 am

e--------------------------|
b--------------------------|
g----------------2---2---4-|
d--------4-4h5p4--4-4-4-4--|

a-2-2-2-2------------------|
E--------------------------|
pm ** *** **

guest
You may want to rate the tab now too:
select rating
Please do not post tabs as comments. Select "correction" instead!