Oops, an error
Loading. Please wait.

Dentro Marilyn chords

version 1
version 1

Whole song

Interactive

694 views 48 this week
1 commentread comment
1 2 3 4 5
x 3
add to favorites
×
Save as Personal and add changes to this tab that will be seen only by you. Learn more ›
×
You can save this tab as Personal to edit and correct it or add notes. All changes will be seen only by you. Learn more »
launch autoscroll
font size
0
reset
transpose
0
reset
simplify chords
display chords
guitar tuner
edit
Autoscroll
slow
fast
+/-
esc
set tempo
stop
Author
Difficulty
Strumming
There is no strumming pattern for this song yet. and get +5 IQ
[Intro]
                   Asus2                  C9
E|-------------------------|----------------------|
B|----------------0--------|-------------3--------|
G|--------0h2-0---2--------|--------0----0--------|
D|-----0h2--------2--------|-----0h2-----2--------|
A|----------------0--------|-------------3--------|
E|-------------------------|----------------------|

                 Asus2                    C9
E|-------------------------|----------------0--0-0-|
B|----------------0--------|----------------3--3-3-|
G|--------0-------2--------|--------0----0-----0-0-|
D|-----0h2--------2--------|-----0h2-----2---------|
A|----------------0--------|-------------3---------|
E|-------------------------|-----------------------|

              Em               C9
E|-------------------|--------0--0--0-----|
B|-------------------|-----3--3--3--3-3---|
G|--------0--0--0--0-|--0--0--0--0--0-0---|
D|-----0h2---2--2--2-|--2--2--2--2--2-2---|
A|-----------2--2--2-|--3--3--3--3--3-3---|
E|-----------0--0--0-|--------------------|

[Verse 1]
   Em        C9         Em      C9
Lei è qua falsità come radioattività
   Em               C9                            
Che mentre c'è da osare
   Em                 C9
Uccide lo spettacolo carnale
   Em                 C9
E l'anima brucia più di quanto illumini
   Em                         C9
Ma è un addestramento mentre attendo

[Chorus 1]
                              Em    C9
Che io m'accorga che so respiraaaaaare
  A
Che sei il mio sovversivo
  C9
Mio sovversivo amore
  Em             C9
Non c'è torto o ragione
  Em                       C9
È il naturale processo di eliminazione

[Interlude 1]
Em  C9  (x2)

[Verse 2]
  Em      C9        Em      C9
Forse se, forse se, porta ad esitare     
   Em                 C9
Io vengo dall'errore, uno solo
   Em                 C9
Del tutto inadatto al volo
   Em                          C9
E anche se vedo il buio, così chiaramente
   Em                  C9
Io penso alla bugia affascinante

[Chorus 2]
                             Em      C9
E non mi accorgo che so respiraaaaaaare
A
Che sei il mio sovversivo
  C9
Mio sovversivo amore
  Em                        C9
Non c'è torto o ragione
  Em                             C9
È il naturale processo di eliminazione

[Interlude 2]
Em  A  C9  (x4)

[Verse 3]
  Em        C9             Em     C9  
Lei è qua, lei è qua come radiottività
   Em             C9  
Che mentre c'è da osare
   Em                C9  
Uccide lo spettacolo carnale
   Em               C9
Cinque pianeti, tutti nel tuo segno
   Em                             C9
Il fallimento è un grembo e io ti attendo

[Chorus 3]
                               Em      C9
Mentre ti scordi che sai respiraaaaaaaare
   A
Che sono il sovversivo
C9
Tuo sovversivo amore
   Em                 C9
Non c'è torto o ragione
   Em                  C9
E' il naturale processo di eliminazione  
   Em                  C9
E' il naturale processo di eliminazione  
   Em                  C9
E' il naturale processo di eliminazione  
   Em                  C9
E' il naturale processo di eliminazione  

            
            
Suggest correction
Creating personal tab
Creating personal tab
You can edit any tab online and save it as your Personal.

You can edit, replace or remove any tab part or add personal notes – all changes will be seen only by you.

Personal tabs can be accessed anytime from any device, even offline.
Learn more »
Give kudos to tab author, rate the tab!
1 2 3 4 5
comments
print report bad tab
1 comment total.
0 reply
livingrass 10 Apr 21, 2017 03:10 PM

👍

guest
You may want to rate the tab now too:
select rating
Wanna post a correction for this tab? Suggest correction