Oops, an error
Loading. Please wait.

Justification Tab

43 views 1 this week
no commentswrite comment
1 2 3 4 5
3 more votes to show rating
add to favorites
launch autoscroll
font size
0
reset
how to read this tab
guitar tuner
Autoscroll
slow
fast
+/-
esc
set tempo
stop
Help us to improve Ultimate-Guitar.com Take our survey!
×
Intro
e|----------------------------------------------------------------------------|
B|----------------------------------------------------------------------------|
G|-----------9-999------------------------------9-999-7767-7767---------------|
D|-7-7-777-9-999-7-7-777-2-222-7-7-777-9-999-7767-7767------------------------|
A|-7-7-777-7-777-7-7-777-2-222-7-7-777-7-777-5545-5545------------------------|
E|-5-5-555---------5-5-555-0-000-5-5-555--------------------------------------|

Verse
e|------------------------------------------------------------|
B|------------------------------------------------------------|
G|--------------77777777---------------7777-------------------|
D|-77777777-77777777-4444-2222-4444-7777----------------------|
A|-77777777-55555555-4444-2222-4444-5555----------------------|
E|-55555555--------------2222-0000-2222-----------------------|

Chorus
e|------------------------------------------------------------------|
B|------------------------------------------------------------------|
G|---------7777---------7777---------7777-444444--------------------|
D|-77-22-7777-77-22-7777-77-22-7777-444444-2-4----------------------|
A|-77-22-5555-77-22-5555-77-22-5555-222222-2-4----------------------|
E|-55-00--------55-00--------55-00------------------0-2-------------|

Ska Part
e|-x55-x5-x5-x5-x77-x7-x7-x7-x55-x5-x77-x7-x55-x5-x5-x5------------------------|
B|-x55-x5-x5-x5-x99-x9-x9-x9-x77-x7-x77-x7-x55-x5-x5-x5------------------------|
G|-x66-x6-x6-x6-x99-x9-x9-x9-x77-x7-x88-x8-x66-x6-x6-x6------------------------|
D|-----------------------------------------------------------------------------|
A|-----------------------------------------------------------------------------|
E|-----------------------------------------------------------------------------|

Song Layout:
Intro 2x
Verse 2x
Chorus
Intro 2x
Verse 2x
Ska Part 3x
Intro 2x
Verse 2x
Chorus
end on A
Suggest correction
Give kudos to tab author, rate the tab!
1 2 3 4 5
comments
print report bad tab
guest
You may want to rate the tab now too:
select rating
Wanna post a correction for this tab? Suggest correction