Oops, an error
Loading. Please wait.

Pestilent Existence Tab

73 views 1 this week
no commentswrite comment
1 2 3 4 5
please rate
add to favorites
launch autoscroll
font size
0
reset
how to read this tab
guitar tuner
Autoscroll
slow
fast
+/-
esc
set tempo
stop
Help us to improve Ultimate-Guitar.com Take our survey!
×
PESTILENT EXISTENCE
Against Authority



-|--------------------------------------------------------------------------|-
-|--------------------------------------------------------------------------|-
-|-----6*-9*-9-8------------------------------------------------------------|-
-|--2*-6*-9*-9-8-9-9*-7-7-7-7--9-9------------------------------------------|-
-|--2*-4*-7*-7-6-9-9*-7-7-7-7--9-9------------------------------------------|-
-|--0*-----------7-7*-5-5-5-5--7-7------------------------------------------|-
   Intro   (Make up a strum pattern that's what i did)                        

-|---------------------4*-5*------------------------------------------------|-
-|---------------------4*-5*------------------------------------------------|-
-|--6*-6*--------6*-6*-5*-6*--6*-6*-----------------------------------------|-
-|--6*-6*-6*-7*--6*-6*--------6*-6*-6*-7*--9*-7-7-7-7--6-7------------------|-
-|--4*-4*-6*-7*--4*-4*--------4*-4*-6*-7*--9*-7-7-7-7--6-7------------------|-
-|--------4*-5*---------------------4*-5*--7*-5-5-5-5--4-5------------------|-
   Verse  x2                                                                  

-|--------------------------------------------------------------------------|-
-|--------------------------------------------------------------------------|-
-|--9*-9*------9*-9*--------------------------------------------------------|-
-|--9*-9*-6-7--9*-9*-6-7--9-9-9-11-9--7-7-7-6-7--9-9-9-11-9--7-7-7-6-7------|-
-|--7*-7*-6-7--7*-7*-6-7--9-9-9-11-9--7-7-7-6-7--9-9-9-11-9--7-7-7-6-7------|-
-|--------4-5--------4-5--7-7-7--9-7--5-5-5-4-5--7-7-7--9-7--5-5-5-4-5------|-
   Chorus                                                                     

-|--------------------------------------------------------------------------|-
-|--------------------------------------------------------------------------|-
-|--------------------------------------------------------------------------|-
-|--9-9-9-11-9--7-7-7-6-4-2-------------------------------------------------|-
-|--9-9-9-11-9--7-7-7-6-4-2-------------------------------------------------|-
-|--7-7-7--9-7--5-5-5-4-2-0-------------------------------------------------|-
                                                                              

-|--------------------------------------------------------------------------|-
-|--------------------------------------------------------------------------|-
-|--------7-7-7------------7-7-7------------7-7-7------------7-7-7----------|-
-|--2-2-2-7-7-7--7*--2-2-2-7-7-7--7*--2-2-2-7-7-7--7*--2-2-2-7-7-7----------|-
-|--2-2-2-5-5-5--7*--2-2-2-5-5-5--7*--2-2-2-5-5-5--7*--2-2-2-5-5-5----------|-
-|--0-0-0--------5*--0-0-0--------5*--0-0-0--------5*--0-0-0----------------|-
   Post-Chorus (Can't take it anymore...)                                     

-|--------------------------------------------------------------------------|-
-|--------------------------------------------------------------------------|-
-|--------------------------------------------------------------------------|-
-|--7-7-7-7--6-7------------------------------------------------------------|-
-|--7-7-7-7--6-7------------------------------------------------------------|-
-|--5-5-5-5--4-5------------------------------------------------------------|-


                                                                              

-|---------------------4*-5*------------------------------------------------|-
-|---------------------4*-5*------------------------------------------------|-
-|--6*-6*--------6*-6*-5*-6*--6*-6*-----------------------------------------|-
-|--6*-6*-6*-7*--6*-6*--------6*-6*-6*-7*--9*-7-7-7-7--6-7------------------|-
-|--4*-4*-6*-7*--4*-4*--------4*-4*-6*-7*--9*-7-7-7-7--6-7------------------|-
-|--------4*-5*---------------------4*-5*--7*-5-5-5-5--4-5------------------|-
   Verse x2                                                                   

-|--------------------------------------------------------------------------|-
-|--------------------------------------------------------------------------|-
-|--9*-9*------9*-9*--------------------------------------------------------|-
-|--9*-9*-6-7--9*-9*-6-7--9-9-9-11-9--7-7-7-6-7--9-9-9-11-9--7-7-7-6-7------|-
-|--7*-7*-6-7--7*-7*-6-7--9-9-9-11-9--7-7-7-6-7--9-9-9-11-9--7-7-7-6-7------|-
-|--------4-5--------4-5--7-7-7--9-7--5-5-5-4-5--7-7-7--9-7--5-5-5-4-5------|-
   Chorus                                                                     

-|--------------------------------------------------------------------------|-
-|--------------------------------------------------------------------------|-
-|--------------------------------------------------------------------------|-
-|--9-9-9-11-9--7-7-7-6-4-2-------------------------------------------------|-
-|--9-9-9-11-9--7-7-7-6-4-2-------------------------------------------------|-
-|--7-7-7--9-7--5-5-5-4-2-0-------------------------------------------------|-
                                                                              

-|--------------------------------------------------------------------------|-
-|--------------------------------------------------------------------------|-
-|--------7-7-7------------7-7-7------------7-7-7------------7-7-7----------|-
-|--2-2-2-7-7-7--7*--2-2-2-7-7-7--7*--2-2-2-7-7-7--7*--2-2-2-7-7-7----------|-
-|--2-2-2-5-5-5--7*--2-2-2-5-5-5--7*--2-2-2-5-5-5--7*--2-2-2-5-5-5----------|-
-|--0-0-0--------5*--0-0-0--------5*--0-0-0--------5*--0-0-0----------------|-
   Post-Chorus                                                                

-|--------------------------------------------------------------------------|-
-|--------------------------------------------------------------------------|-
-|--------------------------------------------------------------------------|-
-|--7-7-7-7--6-7------------------------------------------------------------|-
-|--7-7-7-7--6-7------------------------------------------------------------|-
-|--5-5-5-5--4-5------------------------------------------------------------|-
                                                                              

-|--------------------------------------------------------------------------|-
-|--------------------------------------------------------------------------|-
-|--6*------6*--9-9-9-9--9-8------------------------------------------------|-
-|--6*--2*--6*--9-9-9-9--9-8-9*--7-7-7-7--9-9-------------------------------|-
-|--4*--2*--4*--7-7-7-7--7-6-9*--7-7-7-7--9-9-------------------------------|-
-|------0*-------------------7*--5-5-5-5--7-7-------------------------------|-
   Bridge                                                                     

-|--------------------------------------------------------------------------|-
-|--------------------------------------------------------------------------|-
-|--6*------6*------6*------6-6-6-6-----------------------------------------|-
-|--6*-6-7--6*-6-7--6*-6-7--6-6-6-6-----------------------------------------|-
-|--4*-6-7--4*-6-7--4*-6-7--4-4-4-4-----------------------------------------|-
-|-----4-5-----4-5-----4-5--------------------------------------------------|-
   Outro (This Pestilent Existence...)
comments
We did not receive enough feedback on this tab! Please rate:
print report bad tab
1 2 3 4 5
I want to post or [tab]
guest
You may want to rate the tab now too:
select rating
Please do not post tabs as comments. Select "correction" instead!