Oops, an error
Loading. Please wait.

Stuck In A Rut Tab

48 views 1 this week
no commentswrite comment
1 2 3 4 5
1 last vote to show rating
add to favorites
launch autoscroll
font size
0
reset
how to read this tab
guitar tuner
Autoscroll
slow
fast
+/-
esc
set tempo
stop
Help us to improve Ultimate-Guitar.com Take our survey!
×
STUCK IN A RUT
Against All Authority


INTRO
e|---------------------------------------------------------------------------|
B|---------------------------------------------------------------------------|
G|----5-----5-------------5--------------------------------------------------|
D|------5-----5-----5-------5--5-555555555--5--5-----------------------------|
A|--3-----3-------5-----3------5-555555555--5--5-----------------------------|
E|--------------3-----1--------3-333333333--3--3-----------------------------|
                                 palm mute
VERSE
e|---------------------------------------------------------------------------|
B|---------------------------------------------------------------------------|
G|--5555555-45555555-8888-7777-----------------------------------------------|
D|--5555555-45555555-8888-7777-66666666-3333-5555----------------------------|
A|--3333333-23333333-6666-5555-66666666-3333-5555----------------------------|
E|-----------------------------44444444-1111-3333----------------------------|

CHORUS
e|---------------------------------------------------------------------------|
B|---------------------------------------------------------------------------|
G|--5555-------3333----------------------------------------------------------|
D|--5555-5xxxx-3333-3333-5555------------------------------------------------|
A|--3333-5xxxx-1111-3333-5555------------------------------------------------|
E|-------3xxxx------1111-3333------------------------------------------------|

AFTER CHORUS PART (play part before stars 3 times)
e|-----------------------*----------------------------------------------------|
B|-----------------------*----------------------------------------------------|
G|--5554-5555------------*--7-8-7-5-7-8-7-------------------------------------|
D|--5554-5555-5555-3333--*----------------------------------------------------|
A|--3332-3333-5555-3333--*--5-6-5-3-5-6-5-------------------------------------|
E|------------3333-1111--*----------------------------------------------------|

solo...beats me?
Suggest correction
Give kudos to tab author, rate the tab!
1 2 3 4 5
comments
print report bad tab
guest
You may want to rate the tab now too:
select rating
Wanna post a correction for this tab? Suggest correction