Oops, an error
Loading. Please wait.

The Bottles Looking Better Tab

24 views 1 this week
no commentswrite comment
1 2 3 4 5
please rate
add to favorites
launch autoscroll
font size
0
reset
how to read this tab
guitar tuner
Tab Pro tools
  • play this tab
  • loop segment
  • change instrument
  • show fretboard
  • metronome
Autoscroll
slow
fast
+/-
esc
set tempo
stop
THE BOTTLE'S LOOKING BETTER
Against All Authority


               |----key-----|
               |h-hammer on |
               |p-pull off  |
               |x-mute      |
               |~-slide     |
               |------------|

    Intro.x3               and then...
  E|---------------------|----------------------------|
  B|---------------------|----------------------------|
  G|---------------------|----------------------------|
  D|-------1h2p1---1-----|-------1h2p1---1------------|
  A|-1-1-4-------4---4-1-|-1-1-4-------4---4-1------1-|
  E|---------------------|------------------------4---|


    1st half chourus x2            2nd half once  
   E|-6-x-6-x-6-x-6-x-6-x-6-x-4~-|-9--x--9--x--9--x--9--x--9--x--9--x--4~-|
   B|-6-x-6-x-6-x-6-x-6-x-6-x-4~-|-9--x--9--x--9--x--9--x--9--x--9--x--4~-|
   G|-6-x-6-x-6-x-6-x-6-x-6-x-5~-|-10-x-10--x-10--x-10--x-10--x-10--x--5--|
   D|-8-x-8-x-8-x-8-x-8-x-8-x-6~-|-11-x-11--x-11--x-11--x-11--x-11--x--6--|
   A|-8-x-8-x-8-x-8-x-8-x-8-x-6~-|-11-x-11--x-11--x-11--x-11--x-11--x--6--|
   E|-6-x-6-x-6-x-6-x-6-x-6-x-4~-|-9--x--9--x--9--x--9--x--9--x--9--x--4--|
   

     Bridge once
   E|-6-6-6-6-6-6--9--9--9--9--9--9--4-4-4-4-4-4--7-7-7-7-7-7-6-|
   B|-6-6-6-6-6-6--9--9--9--9--9--9--4-4-4-4-4-4--7-7-7-7-7-7-6-|
   G|-6-6-6-6-6-6-10-10-10-10-10-10--5-5-5-5-5-5--8-8-8-8-8-8-6-|
   D|-8-8-8-8-8-8-11-11-11-11-11-11--6-6-6-6-6-6--9-9-9-9-9-9-8-|
   A|-8-8-8-8-8-8-11-11-11-11-11-11--6-6-6-6-6-6--9-9-9-9-9-9-8-|
   E|-6-6-6-6-6-6--9--9--9--9--9--9--4-4-4-4-4-4--7-7-7-7-7-7-6-|


     Bridge2 x5
   E|-6-6---4~6~7~-|
   B|-6-6---6~8~9~-|
   G|-6-6---6~8~9~-|
   D|-8-8---6~8~9~-|
   A|-8-8---4~6~7~-|
   E|-6-6----------|

     Solo1
   E|-------------------|
   B|-------------------|
   G|-------------------|
   D|-------1h2p1--1----|
   A|-1-1-4-------4-4---|
   E|-------------------|

     Solo2
   E|----7------|
   B|-----5-----| (played at begining and end of solo, for the body
   G|------5----|  mess around in an A scale.)
   D|-------7---|
   A|-----------|
   E|-----------|

     Song Structure:
        Intro.
     Chourus x3
     Bridge
     Bridge2
     Solo1
     chourus x2
     Bridge
     Bridge2
     Solo1
     Solo2
     solo1
     Bridge
     Bridge2                   |------|
     Solo1                     |------|
     and play at end of song...|------|
                               |------|
                               |----1-|
                               |--4---|

     Thats it! well they do it in drop D tuning and alot fancier but 
     this is the basic idea.
comments
We did not receive enough feedback on this tab! Please rate:
print report bad tab
1 2 3 4 5
I want to post or [tab]
guest
You may want to rate the tab now too:
select rating
Please do not post tabs as comments. Select "correction" instead!