Oops, an error
Loading. Please wait.

8 Full Hours Of Sleep Bass Tab

1,547 views 1 this week
no commentswrite comment
1 2 3 4 5
excellent!
x 3
add to favorites
launch autoscroll
font size
0
reset
guitar tuner
Autoscroll
slow
fast
+/-
esc
set tempo
stop
Help us to improve Ultimate-Guitar.com Take our survey!
×
SONG: 8 Full Hours of Sleep
ALBUM: Reinventing Axl Rose
ARTIST: Against Me!

INTRO

G|-----------------|-----------------|-----------------|-----------------|
D|-10~-------------|-----------------|-10~-------------|-----------------|
A|-----------------|-----------------|---------12~-----|-8~--------------|
E|-----------------|-----------------|-----------------|-----------------|
   1 + 2 + 3 + 4 +   1 + 2 + 3 + 4 +   1 + 2 + 3 + 4 +   1 + 2 + 3 + 4 +      
 
VERSE

G|-----------------|-----------------|-----------------|-----------------|
D|-10~-------------|-----------------|-10~-------------|-----------------|
A|---------12~-----|-8~--------------|---------12~-----|-8~--------------|
E|-----------------|-----------------|-----------------|-----------------|
   1 + 2 + 3 + 4 +   1 + 2 + 3 + 4 +   1 + 2 + 3 + 4 +   1 + 2 + 3 + 4 +      
 
G|-----------------|-----------------|-----------------|-----------------|
D|-----------------|-10~-------------|-----------------|-----------------|
A|-8~--------------|---------10~-----|-----------------|---------8~------|
E|-----------------|-----------------|-----------------|-----------------|
   1 + 2 + 3 + 4 +   1 + 2 + 3 + 4 +   1 + 2 + 3 + 4 +   1 + 2 + 3 + 4 +      

G|--------------------------|
D|--------------------------|
A|--------------------------|
E|--------------------------|
   1 + 2 + 3 + 4 + 5 + 6 +   

G|-----------------|-----------------|-----------------|-----------------|
D|-10~-------------|-----------------|-10~-------------|-----------------|
A|---------12~-----|-8~--------------|---------12~-----|-8~--------------|
E|-----------------|-----------------|-----------------|-----------------|
   1 + 2 + 3 + 4 +   1 + 2 + 3 + 4 +   1 + 2 + 3 + 4 +   1 + 2 + 3 + 4 +      
 
G|-----------------|-----------------|-----------------|-----------------|
D|-----------------|-10~-------------|-----------------|-----------------|
A|-8~--------------|---------10~-----|-----------------|---------8~------|
E|-----------------|-----------------|-----------------|-----------------|
   1 + 2 + 3 + 4 +   1 + 2 + 3 + 4 +   1 + 2 + 3 + 4 +   1 + 2 + 3 + 4 +      

G|--------------------------|
D|--------------------------|
A|--------------------------|
E|--------------------------|
   1 + 2 + 3 + 4 + 5 + 6 +   

CHORUS

G|-----------------|-----------------|-----------------|-----------------|
D|-----------------|-7~--------------|-----------------|-----------------|
A|-8~--------------|-----------------|---------10~-----|-8~--------------|
E|-----------------|-----------------|-----------------|-----------------|
   1 + 2 + 3 + 4 +   1 + 2 + 3 + 4 +   1 + 2 + 3 + 4 +   1 + 2 + 3 + 4 +      

G|-----------------|-----------------|-----------------|-----------------|
D|-----------------|-10~-------------|-----------------|-----------------|
A|-----------------|---------10~-----|-----------------|---------8~------|
E|-----------------|-----------------|-----------------|-----------------|
   1 + 2 + 3 + 4 +   1 + 2 + 3 + 4 +   1 + 2 + 3 + 4 +   1 + 2 + 3 + 4 +      


G|--------------------------|
D|--------------------------|
A|--------------------------|
E|--------------------------|
   1 + 2 + 3 + 4 + 5 + 6 +   

VERSE

G|-----------------|-----------------|-----------------|-----------------|
D|-10~-------------|-----------------|-10~-------------|-----------------|
A|---------12~-----|-8~--------------|---------12~-----|-8~--------------|
E|-----------------|-----------------|-----------------|-----------------|
   1 + 2 + 3 + 4 +   1 + 2 + 3 + 4 +   1 + 2 + 3 + 4 +   1 + 2 + 3 + 4 +      
 
G|-----------------|-----------------|-----------------|-----------------|
D|-----------------|-10~-------------|-----------------|-----------------|
A|-8~--------------|---------10~-----|-----------------|-----------------|
E|-----------------|-----------------|-----------------|-----------------|
   1 + 2 + 3 + 4 +   1 + 2 + 3 + 4 +   1 + 2 + 3 + 4 +   1 + 2 + 3 + 4 +      

G|-----------------|-----------------|
D|-----------------|-----------------|
A|-8~--------------|-----------------|
E|-----------------|-----------------|
   1 + 2 + 3 + 4 +   1 + 2 + 3 + 4 +

G|-----------------|-----------------|-----------------|-----------------|
D|-10~-------------|-----------------|-10~-------------|-----------------|
A|---------12~-----|-8---------------|---------12~-----|-8~--------------|
E|-----------------|-----------------|-----------------|-----------------|
   1 + 2 + 3 + 4 +   1 + 2 + 3 + 4 +   1 + 2 + 3 + 4 +   1 + 2 + 3 + 4 +      

G|-----------------|-----------------|-----------------|-----------------|
D|-----------------|-10~-------------|-----------------|-----------------|
A|-----------------|---------10~-----|-----------------|---------8~------|
E|-----------------|-----------------|-----------------|-----------------|
   1 + 2 + 3 + 4 +   1 + 2 + 3 + 4 +   1 + 2 + 3 + 4 +   1 + 2 + 3 + 4 +      


G|--------------------------|
D|--------------------------|
A|--------------------------|
E|--------------------------|
   1 + 2 + 3 + 4 + 5 + 6 +   


CHORUS

G|-----------------|-----------------|-----------------|-----------------|
D|-----------------|-7~--------------|-----------------|-----------------|
A|-8~--------------|-----------------|---------10~-----|-8~--------------|
E|-----------------|-----------------|-----------------|-----------------|
   1 + 2 + 3 + 4 +   1 + 2 + 3 + 4 +   1 + 2 + 3 + 4 +   1 + 2 + 3 + 4 +      

G|-----------------|-----------------|-----------------|-----------------|
D|-----------------|-10~-------------|-----------------|-----------------|
A|-----------------|---------10~-----|-----------------|---------8~------|
E|-----------------|-----------------|-----------------|-----------------|
   1 + 2 + 3 + 4 +   1 + 2 + 3 + 4 +   1 + 2 + 3 + 4 +   1 + 2 + 3 + 4 +

G|--------------------------|
D|--------------------------|
A|--------------------------|
E|--------------------------|
   1 + 2 + 3 + 4 + 5 + 6 +   
Suggest correction
Give kudos to tab author, rate the tab!
1 2 3 4 5
comments
print report bad tab
guest
You may want to rate the tab now too:
select rating
Wanna post a correction for this tab? Suggest correction