Oops, an error
Loading. Please wait.

Acoustic Ep Tab

18,250 views 3 this week
5 commentsread comments
1 2 3 4 5
accurate
x 9
add to favorites
launch autoscroll
font size
0
reset
how to read this tab
guitar tuner
Autoscroll
slow
fast
+/-
esc
set tempo
stop
Help us to improve Ultimate-Guitar.com Take our survey!
×
Author
Difficulty
novice
AGAINST ME! - The Acoustic EP (a.k.a. Jordan's First Choice)

This is a great album from Tom Gabel and friends before Against Me! became who they are now.


Jordan's First Choice

Verse
  Dbm Ab  A  B
e-|-4--4--5--7-|
B-|-5--4--5--7-|
G-|-6--5--6--8-|
D-|-6--6--7--9-|
A-|-4--6--7--9-|
E-|----4--5--7-|

Pre-Chorus
   Ab Dbm
e-|-4--4-|
B-|-4--5-|
G-|-5--6-|
D-|-6--6-|
A-|-6--4-|
E-|-4----|

Chorus
    A  B  A  B Ab
e-|-5--7--5--7--4-|
B-|-5--7--5--7--4-|
G-|-6--8--6--8--5-|
D-|-7--9--7--9--6-|
A-|-7--9--7--9--6-|
E-|-5--7--5--7--4-|

++++++++++++++++++++++++++++++++++++++++++++++++++++++++++++++++++++++++++++

Those Anarcho Punks Are Mysterious
 
Intro
   F#m
e-|-2-|
B-|-2-|
G-|-2-|
D-|-4-|
A-|-4-|
E-|-2-|

Verse
   F#m D  A  E
e-|-2--x--5--0-|
B-|-2--7--5--0-|
G-|-2--7--6--1-|
D-|-4--7--7--2-|
A-|-4--5--7--2-|
E-|-2-----5--0-|

Pre-Chorus
      E F#mE  D F#m    E  D   A
e-|---0--2-0--x--2---|-0--x-|-5-|
B-|---0--2-0--7--2---|-0--7-|-5-|
G-|-o-1--2-1--7--2-o-|-1--7-|-6-|
D-|-o-2--4-2--7--4-o-|-2--7-|-7-|
A-|---2--4-2--5--4---|-2--5-|-7-|
E-|---0--2-0-----2---|-0----|-5-|

Outro
   F#m A       E
e-|-2--5-------x-|
B-|-2--5-------9-|
G-|-2--6-------9-|
D-|-4--7-------9-|
A-|-4--7-------7-|
E-|-2--5--5h7----|

++++++++++++++++++++++++++++++++++++++++++++++++++++++++++++++++++++++++++++

Reinventing Axl Rose

Verse
    E G#m A  E
e-|-x--4--5--0-|
B-|-9--4--5--0-|
G-|-9--4--6--1-|
D-|-9--6--7--2-|
A-|-7--6--7--2-|
E-|----4--5--0-|

Chorus
     F#  A  E     E  E5  Eb5 C#5 B5
e-|---2--5--0---|-0-|-----------------|
B-|---2--5--0---|-0-|-----------------|
G-|-o-3--6--1-o-|-1-|-9-9-8-8-6-6-4-4-|
D-|-o-4--7--2-o-|-2-|-9-9-8-8-6-6-4-4-|
A-|---4--7--2---|-2-|-7-7-6-6-4-4-2-2-|
E-|---2--5--0---|-0-|-----------------|

++++++++++++++++++++++++++++++++++++++++++++++++++++++++++++++++++++++++++++

We Did It All For Don

Riff 1
    A  E  A  D
e-|-5--0--5--x-|
B-|-5--0--5--7-|
G-|-6--1--6--7-|
D-|-7--2--7--7-|
A-|-7--2--7--5-|
E-|-5--0--5----|

Riff 2
    A  E  D
e-|-5--0--x-|
B-|-5--0--7-|
G-|-6--1--7-|
D-|-7--2--7-|
A-|-7--2--5-|
E-|-5--0----|

Riff 3
   F#m E5 D
e-|-2-----x-|
B-|-2-----7-|
G-|-2-----7-|
D-|-4--2--7-|
A-|-4--2--5-|
E-|-2--0----|

Riff 4
    E F#m D
e-|-0--2--x-|
B-|-0--2--7-|
G-|-1--2--7-|
D-|-2--4--7-|
A-|-2--4--5-|
E-|-0--2----|

Riff Order - 1 2 3 1 2 3 4 1 2 3 4 1 2

++++++++++++++++++++++++++++++++++++++++++++++++++++++++++++++++++++++++++++

Pints Of Guinness Make You Strong

Verse 1
   Am  C Am  G
e-|-0--0--0--3-|
B-|-1--1--1--3-|
G-|-2--0--2--0-|
D-|-2--2--2--0-|
A-|-0--3--0--2-|
E-|---(3)----3-|

Chorus
    F Am  G
e-|-1--0--3-|
B-|-1--1--3-|
G-|-2--2--0-|
D-|-3--2--0-|
A-|-3--0--2-|
E-|-1-----3-|

Verse 2
   Am  C  G  F     F Am  G  F
e-|-0--0--3--1-|---1--0--3--1---|
B-|-1--1--3--1-|---1--1--3--1---|
G-|-2--0--0--2-|-o-2--2--0--2-o-|
D-|-2--2--0--3-|-o-3--2--0--3-o-|
A-|-0--3--2--3-|---3--0--2--3---|
E-|---(3)-3--1-|---1-----3--1---|
                ______________3x
++++++++++++++++++++++++++++++++++++++++++++++++++++++++++++++++++++++++++++

Untitled Track

Verse
      B  C#  E    F#
e-|---7---9--0---|-2-|
B-|---7---9--0---|-2-|
G-|-o-8--10--1-o-|-3-|
D-|-o-9--11--2-o-|-4-|
A-|---9--11--2---|-4-|
E-|---7---9--0---|-2-|

Chorus
    B  C#  E F#
e-|-7---9--0--2-|
B-|-7---9--0--2-|
G-|-8--10--1--2-|
D-|-9--11--2--4-|
A-|-9--11--2--4-|
E-|-7---9--0--2-|



There it is. Please enjoy it; it is a great album by a great band.
Suggest correction
What's this?
You can suggest a correction to this tab. Community and Mods will review your correction and vote to approve or reject it.
comments
print report bad tab
5 comments total. Showing first comments.
+1 reply
knivesky 19 wrote on July 25 2006, 10:38 pm

great.

-1 reply
acdcace 10 wrote on July 26 2006, 11:26 pm

it did not get the beat

+1 reply
BloodLikMercury 40 wrote on July 27 2006, 06:15 pm

this is a great tab. all the songs are right. great album to play along to.

guest
You may want to rate the tab now too:
select rating
Please do not post tabs as comments. Select "correction" instead!