Oops, an error
Loading. Please wait.

American Abroad Bass Tab

885 views 1 this week
2 commentsread comments
1 2 3 4 5
x 3
add to favorites
launch autoscroll
font size
0
reset
guitar tuner
Autoscroll
slow
fast
+/-
esc
set tempo
stop
Help us to improve Ultimate-Guitar.com Take our survey!
×
Author
-------------------------------------------------------------------------------
		      Americans Abroad - Against Me
-------------------------------------------------------------------------------

Tabbed By : Bernie93
e-mail: dylanob93@hotmail.com

Tuning: standard

Intro/verse 1 (0:04)
G|-----------------------|
D|-----------------------|
A|-----------------------|
E|--2---2---2---0--00----|

play:
0:04 - 0:51

chorus 1
G|------------------------------------------------------------------------------|
D|------------------------------------------------------------------------------|
A|------------------------------------------------------------------------------|
E|--5--------0--------2---2---2---0--00--2---2---2---0--00----5--------0--------|

play:
0:51 - 1:01

main verse (just the verse with strumming)
G|-------------------|
D|-------------------|
A|-------------------|
E|--22-2-2--0-000----|

play:
1:03 - 1:25

main chorus (just the chorus with strumming)
G|-----------------------------------------------------------------|
D|-----------------------------------------------------------------|
A|-----------------------------------------------------------------|
E|--55555555--00000000---2---2---2---0--00--2---2---2---0--00------|


G|-----------------------------------------------------------------|
D|-----------------------------------------------------------------|
A|-----------------------------------------------------------------|
E|--55555555--00000000---2---2---2---0--00--2---2---2--5--0--------|

play:
1:25 - 1:40

Main verse (1:40 - 1:59)


Outro Chorus
G|-----------------------------------------------------------------|
D|-----------------------------------------------------------------|
A|-----------------------------------------------------------------|
E|--55555555--00000000--2---2---2---0--00--2---2---2---0--00-------|

G|----------------------------------------------------------------------------------------|
D|----------------------------------------------------------------------------------------|
A|----------------------------------------------------------------------------------------|
E|--55555555--00000000--2--2-2-2--0-0---2--2-2-2--0--0---2--2-2-2--0-0---2--2-2-2--0-0----|

Play:
1:59 - 2:15

Finish On
G|------|
D|------|
A|------|
E|--2---|
Suggest correction
Give kudos to tab author, rate the tab!
1 2 3 4 5
comments
print report bad tab
2 comments total.
0 reply
bames2323 31 Jun 29, 2007 01:53 PM

hey, your tab just got approved so im gonna comment on it, ive never heard of the song so i wouldnt know whetther its right or not, but it looks like a good song, and looks like you'd get it right by the way your profile looks, ive just helped you out a lot so can you comment by tabs?

5 stars

0 reply
royson28 922 Mar 26, 2008 03:34 AM

Pretty good tab man from an awesome band. I think there are a few liitle fills that arent there tho as expected from an against me tab. Good job!

guest
You may want to rate the tab now too:
select rating
Wanna post a correction for this tab? Suggest correction