Oops, an error
Loading. Please wait.

American Abroad Tab

2,065 views 3 this week
no commentswrite comment
1 2 3 4 5
please rate
add to favorites
launch autoscroll
font size
0
reset
how to read this tab
guitar tuner
Autoscroll
slow
fast
+/-
esc
set tempo
stop
Help us to improve Ultimate-Guitar.com Take our survey!
×
Difficulty
novice
-------------------------------------------|
-------------------------------------------|
-------------------------------------------|
---4---4---4---4---4----2--2--2------------|
---4---4---4---4---4----2--2--2------------|
---2---2---2---2---2-----------------------| repeat

chours
-------------------- --|
-----------------------|
-----------------9-----|
-----7-----------9-----|
-----7-- --------7-----|
-----5---x8------------|x8

and thats the song
Suggest correction
Give kudos to tab author, rate the tab!
1 2 3 4 5
comments
print report bad tab
guest
You may want to rate the tab now too:
select rating
Please do not post tabs as comments. Select "correction" instead!