Oops, an error
Loading. Please wait.

Americans Abroad Bass Tab

593 views 3 this week
no commentswrite comment
1 2 3 4 5
please rate
add to favorites
launch autoscroll
font size
0
reset
guitar tuner
Autoscroll
slow
fast
+/-
esc
set tempo
stop
Help us to improve Ultimate-Guitar.com Take our survey!
×
Author
Intro/verse 1 (played with fingers) x12
G|-----------|
D|-----------|
A|-----------|
E|2-2-2-0-00-|

Chorus (played with fingers)
G|-----------------------------------------------|
D|-----------------------------------------------|
A|----5/7~--97-97---------------------------5/7.-|
E|5~--------------2-2-2-0-00-2-2-2-0-00-5~-------|

After chorus (played with pick)
G|-------------|          G|-------------|
D|-------------|          D|-------------|
A|-------------|  x3      A|-------------|  x1
E|2-2-22-0-000-|          E|2-2-22-4-5-0-|

Verse  x8
G|-------------|
D|-------------|
A|-------------|
E|2-2-22-0-000-|

Chorus
G|-------------------------------------------------|
D|-------------------------------------------------|
A|----------5/7-7-77-777---------------------------|
E|5-5-55-55--------------2-2-22-0-000-2-2-22-0-000-|

G|------------------------------------------------------------------------|
D|------------------------------------------------------------------------|
A|----------5/7-7-77-777--------------------------------------------------|
E|5-5-55-55--------------2-2-22-0-000-2-2-2-5-0-2-2-22-0-000-2-2-22-4-5-0-|

Verse  x8
G|-------------|
D|--4----------|
A|-------------|
E|2---22-0-000-|

Chorus slightly different at end but just really continuing E2-2-22-0-000.

Please rate and comment.
Suggest correction
Give kudos to tab author, rate the tab!
1 2 3 4 5
comments
print report bad tab
guest
You may want to rate the tab now too:
select rating
Please do not post tabs as comments. Select "correction" instead!