Oops, an error
Loading. Please wait.

Animal Bass Tab

1,878 views 1 this week
2 commentsread comments
1 2 3 4 5
excellent!
x 6
add to favorites
launch autoscroll
font size
0
reset
guitar tuner
Autoscroll
slow
fast
+/-
esc
set tempo
stop
Help us to improve Ultimate-Guitar.com Take our survey!
×
Author
Band: Against Me 
Album: New Wave
Song: Animal

Not totally sure with this tab so
Comments and corrections are very welcome

Please Rate

Intro

G|------------------------------------------------------------|
D|------------------------------------------------------------| 
A|-555-8-5-555-8-5-555-8-5-555-8-5-555-8-5-555-8-5-555-8-5-8.-|
E|------------------------------------------------------------|

Verse (0:11) x2

G|------------------------------------------------------------------|
D|------------------------------------------------------------------| 
A|-5-5-8-5-5-5-8-5-5-5-8-5-5-5-8-5----------------------------------|
E|---------------------------------5-5-8-5-5-5-8-5-5-5-8-5-5-5-4-4--|

G|------------------------------------------------------------------|
D|------------------------------------------------------------------| 
A|------------------------------------------------------------------|
E|-3-3-6-3-3-3-6-3-3-3-6-3-3-3-4-4-5-5-8-5-5-5-8-5-5-5-8-5-5-5-8-5--|

Chorus 1 (0:55)

G|--------------------------------------------------|
D|-88888877-----------------------------------------| 
A|--------------------------------------------------|
E|---------3333333311111115666666556666666655555.---|

Post chorus (1:13) (not sure with this part)

G|-------------------------------------5-------5-------5------------|
D|---------------------------------7-7---7-7-7---7-7-7---7----------| 
A|-5-5-8-5-5-5-8-5-5-5-8-5-5-5-8-5----------------------------------|
E|---------------------------------------------------------54204202-|

G|------------------------------------------------------------------|
D|------------------------------------------------------------------| 
A|---------------------------------------------------------5//12\\5-|
E|-3-3-6-3-3-3-6-3-3-3-6-3-320-320-5-5-8-5-5-5-8-5-5-5-8-5----------|


Verse (1:35)

G|-------------------------------------5-------5-------5------------|
D|---------------------------------7-7---7-7-7---7-7-7---7-7-7-6-6--| 
A|-5-5-8-5-5-5-8-5-5-5-8-5-5-5-8-5----------------------------------|
E|------------------------------------------------------------------|

G|-------------------------------------5-------5-------5-------5----|
D|-5-5-8-5-5-5-8-5-5-5-8-5-5-5-6-6-7-7---7-7-7---7-7-7---7-7-7---7--| 
A|------------------------------------------------------------------|
E|------------------------------------------------------------------|

G|------------------------------------------------------------------|
D|------------------------------------------------------------------| 
A|-5-5-8-5-5-5-8-5-5-5-8-5-5-5-8-5----------------------------------|
E|---------------------------------5-5-8-5-5-5-8-5-5-5-8-5-5-5-4-4--|

G|------------------------------------------------------------------|
D|------------------------------------------------------------------| 
A|------------------------------------------------------------------|
E|-3-3-6-3-3-3-6-3-3-3-6-3-3-3-4-4-5-5-8-5-5-5-8-5-5-5-8-5-5-5-8-5--|

Chorus 2 (2:20)

G|--------------------------------------------------|
D|-88888877-----------------------------------------| 
A|--------------------------------------------------|
E|---------3333333311111115666666556666666655555555-|

Bridge (2:36)

G|---------------------------3-5----|
D|----------------------------------| 
A|-5-5-8-5-5-5-8-5-5-5-8-5-5-----5--|
E|----------------------------------|

Chorus 3 (2:42)

G|-----------------------------------------------------|
D|-88888877--------------------------------------------| 
A|-----------------------------------------------------|
E|---------33333333111111156666665566666666555555555~\-|

Ending: (3:02)

G|-----7-10-9-10-7------|
D|---7-------------7----| 
A|-5-----------------5~-|
E|----------------------|
Suggest correction
comments
print report bad tab
2 comments total.
0 reply
royson28 922 wrote on July 9 2008, 04:26 am

good job man, just wondering if the verse would be:
G|----------------------
D|----------------------
A|------8----------8---- etc.
E|10-10---10-10-10---10-

G|----------------
D|----------------
A|----3-------3--- etc.
E|5-5---5-5-5---5-

G|--------------------
D|--------------------
A|--------1-------1--- etc then back to E|10 A| 8
E|4-4-3-3---3-3-3---3-

Just a suggestion, i kinda tabbed it myself a bit.

0 reply
rlykng08 51 wrote on July 15 2008, 10:08 am

sounds good to me man

guest
You may want to rate the tab now too:
select rating
Wanna post a correction for this tab? Suggest correction