Oops, an error
Loading. Please wait.

Baby Im An Anarchist Bass Tab

version 1
version 1

Whole song

Interactive

4,237 views 12 this week
no commentswrite comment
1 2 3 4 5
x 4
add to favorites
launch autoscroll
font size
0
reset
guitar tuner
Autoscroll
slow
fast
+/-
esc
set tempo
stop
Help us to improve Ultimate-Guitar.com Take our survey!
×
Author
Difficulty
novice
Baby, I'm An Anarchist
Against Me!
Reinventing Axl Rose

UPDATED*

I saw there wasn't a bass tab for this, so I thought I would put one up.  I'm
pretty sure this is mostly right, maybe a few errors here and there, but oh well.

Intro (No Bass)

G------------------|
D------------------|
A------------------|
E------------------|

Verse

G---------------------------------------------------------------------|
D---------------------------------------------------------------------|
A-33-00-------33-00-------33-00-------33-00---------------3-2-0-------|
E-------11-33-------11-33-------11-33-------11-33--11--33-------3-----|

G----------------------------|
D----------------------------|
A------3-2-0----------3~-----|
E-1-3--------3--1--3---------|

Chorus

G--------------------------------------------------------|
D--------------------------------------------------------|
A-------33-----------33----------------------------------|
E-00-11----33--00-11-----33---00000000-11111111---3-3-3--|

Bridge

G------------|
D------------|
A-3--2-0-----|
E--------1-3-|

Verse
G-----------------------------------------------------------------|
D-----------------------------------------------------------------|
A-33-00-------33-00----33-00-------33-00-------33-00--------------|
E-------11-33-------1--------11-33-------11-33-------11-33--11-33-|

G----------------------------------|
D----------------------------------|
A-3-2-0----------3-2-0---------3~--|
E-------3---1-3--------3---1-3-----|

Play Chorus again.
End of song.

Question/comments post them up.
Suggest correction
comments
print report bad tab
guest
You may want to rate the tab now too:
select rating
Wanna post a correction for this tab? Suggest correction