Oops, an error
Loading. Please wait.

Beginning In An Ending Tab

version 1
version 1

Whole song

4,926 views 3 this week
1 commentread comment
1 2 3 4 5
please rate
add to favorites
launch autoscroll
font size
0
reset
how to read this tab
guitar tuner
Tab Pro tools
  • play this tab
  • loop segment
  • change instrument
  • show fretboard
  • metronome
×
Best way to learn
"Beginning In An Ending"
Autoscroll
slow
fast
+/-
esc
set tempo
stop
Intro
|--------------------|
|--------------------|
|--------------------| 2X
|--4---5---7---------|
|--5---7---9---------|
|--------------------|

Verse:

|--------------------|
|--------------------|
|--------------------|
|--4---5---7---------|
|--5---7---9---------|
|--------------------|
         Every   day

|--------------------|
|--------------------|
|--------------------|
|--4---5---7---------|
|--5---7---9---------|
|--------------------|
        has a beginning and ending, just like

|--------------------|
|--------------------|
|--------------------|
|--7-----------------|
|--7-----------------|
|--5-----------------|
          every life

|--------------------|
|--------------------|
|--------------------|
|--7-----------------|
|--7-----------------|
|--5-----------------|
        has a start and finish.

|--------------------|
|--------------------|
|--------------------|
|--------------------|
|--4---5---7---------|
|--5---7---9---------|
          July is gone like the

|--------------------|
|--------------------|
|--------------------|
|--------------------|
|------------2-------|
|--2---------3-------|
    gasoline it took

|--------------------|
|--------------------|
|--------------------|
|--------------------|
|----------2-----4---|
|----------3-----5---|
to make the circle again.

|--------------------|
|--------------------|
|--------------------|
|--------------------|
|--2-------------4---|
|--3-------------5---|
     Florida to Florida, by way of

|------------------------------------------------3-|
|------------------------------------------------3-|
|--7--7--7-6--6--6-4--4--4----------------------4--|
|--7--7--7-7--7--7-4--4--4-7--7--7-5------------5--|
|--5--5--5-4--4--4-2--2--2-7--7--7-5------------5--|
|---------------------------5--5--5-3-----3-3--3-3-|
america,

|-------------------------|
|-------------------------|
|-------------------------|
|--4---5-------7----------|
|--5---7-------9----------|
|-------------------------|
       Cocaine and soda,

|--------------------------------|
|--------------------------------|
|--------------------------------|
|--4-------5----------7----------|
|--5-------7----------9----------|
|--------------------------------|
       playing Tetris in our underwear.

|-------------------------|
|-------------------------|
|-------------------------|
|------7------------------|
|------7------------------|
|------5------------------|
  We take turns reading letters,

|--------------------|
|--------------------|
|--------------------|
|--7-----------------|
|--7-----------------|
|--5-----------------|
        I read the haiku and you move your nails across my legs.

|----------------------|
|----------------------|
|----------------------|
|----------------------|
|--4---5----7----------|
|--5---7----9----------|
        In    your arms,

|-------------------------|
|-------------------------|
|-------------------------|
|-------------------------|
|----------------2--------|
|------2---------3--------|
 I don't know who I am,

|------------------------|
|------------------------|
|------------------------|
|------------------------|
|-----2-------------4----|
|-----3-------------5----|
taking all I know about nihilism

|------------------------------|
|------------------------------|
|-------------------- ----- 7--|
|--------------------------7---|
|--2-------------4---------5---|
|--3-------------5-------------|
       and trying to build it into a life.

Ending (figure out the strumming patterns and such, these are just the chords) :


|--------------------------3-------5---------------------------------------------|
|--------------------------3-------5---------------------------------------------|
|-------------7-6----------4-------6---------------------------------------------|
|--4-2--------7-7----------5-(x12)- 7-(x12)--------------------------------------|
|--5-4-555555-5-4-555555--5-------7----------------------------------------------|
|------777777-----777777--3-------5----------------------------------------------|

|---------------------------------------------------------- 5---2------------------|
|---------------------------------------------------------- 5---2------------------|
|-------------------- --------------------------------------6---0------------------|
|-4-2-----4---------- 4-------------------4---------------- 7---0------------------|
|-5-4-5---5(x6)-5-----5(x6)-5------55--44-5(x12)--4-5-4-5---7---2------------------|
|-----7(x6)-----7(x12)------7(x12)--77-------------------7---5---3-----------------|


With your thought in mind, I walk the streets down to the shore and I sink into the 
This is everything up to now ending. It was nice to believe for a while.
comments
We did not receive enough feedback on this tab! Please rate:
print report bad tab
1 2 3 4 5
1 comment total.
0 reply
Nataku wrote on October 27 2009, 02:11 pm

|-2-0-0-
|-0-2-3-...."IT WAS NICE TO BELIEVE FOR..."

I want to post or [tab]
guest
You may want to rate the tab now too:
select rating
Please do not post tabs as comments. Select "correction" instead!