Oops, an error
Loading. Please wait.

Black Me Out Chords

version 1
version 1

Acoustic

Whole song

Interactive

18,625 views 198 this week
2 commentsread comments
1 2 3 4 5
x 16
add to favorites
launch autoscroll
font size
0
reset
transpose
0
reset
display chords
guitar tuner
Autoscroll
slow
fast
+/-
esc
set tempo
stop
Help us to improve Ultimate-Guitar.com Take our survey!
×
Author
Artist: Against Me!
Song: "Black Me Out" (Acoustic)

[Intro]

e|-----------------------------------------------------------------|
B|-----------------------------------------------------------------|
G|-----------------------------------------------------------------|
D|--------------------9-9-6-4-6-4-2-2-4-4-4-2-2-9-9-6-4-6-4-2------|
A|-7-7-11-11-11-9-7-7-0-0-0-0-0-0-0-0-0-0-0-0-4-0-0-0-0-0-0-0------|
E|-0-0-0--0--0--0-0-0----------------------------------------------|

e|-----------------------------------------------------------------|
B|-----------------------------------------------------------------|
G|-----------------------------------------------------------------|
D|-4-4-6-4-4-4-6-4-4-4-6-4-4-4-6-4-2-2-4-4-6-6-2-2-9-9-9-9-9-9-9-9-|
A|-2-2-2-2-2-2-2-2-2-2-2-2-2-2-2-2-0-0-0-0-0-0-0-0-0-0-0-0-0-0-0-0-|
E|-----------------------------------------------------------------|


[Verse 1]

E
I don't ever want to talk that way again
A
I don't want to know people like that anymore
B
As if there was an obligation
A                    Am
As if you I owed you something
         E
Black me out


[Chorus]
E                                   A
I want to piss on the walls of your house
                            B
I want to chop those brass rings off your fat fucking fingers
A
As if you were a king-maker
Am
As if, as if, as if, black me out


[Instrumental]

e|-----------------------------------------------------------------|
B|-----------------------------------------------------------------|
G|-----------------------------------------------------------------|
D|--------------------9-9-6-4-6-4-2-2-4-4-4-2-2-9-9-6-4-6-4-2------|
A|-7-7-11-11-11-9-7-7-0-0-0-0-0-0-0-0-0-0-0-0-4-0-0-0-0-0-0-0------|
E|-0-0-0--0--0--0-0-0----------------------------------------------|

e|-----------------------------------------------------------------|
B|-----------------------------------------------------------------|
G|-----------------------------------------------------------------|
D|-4-4-6-4-4-4-6-4-4-4-6-4-4-4-6-4-2-2-4-4-6-6-2-2-9-9-9-9-9-9-9-9-|
A|-2-2-2-2-2-2-2-2-2-2-2-2-2-2-2-2-0-0-0-0-0-0-0-0-0-0-0-0-0-0-0-0-|
E|-----------------------------------------------------------------|
 

[Verse 2]

E
I don't want to see the world that way anymore
A
I don't want to feel that weak and insecure
B
As if you were my fucking pimp
A                Am
As if I was your fucking whore
         E
Black me out


[Chorus] x2
E                                   A
I want to piss on the walls of your house
                            B
I want to chop those brass rings off your fat fucking fingers
A
As if you were a king-maker
Am
As if, as if, as if, black me out


[Instrumental]

e|-----------------------------------------------------------------|
B|-----------------------------------------------------------------|
G|-----------------------------------------------------------------|
D|--------------------9-9-6-4-6-4-2-2-4-4-4-2-2-9-9-6-4-6-4-2------|
A|-7-7-11-11-11-9-7-7-0-0-0-0-0-0-0-0-0-0-0-0-4-0-0-0-0-0-0-0------|
E|-0-0-0--0--0--0-0-0----------------------------------------------|

e|-----------------------------------------------------------------|
B|-----------------------------------------------------------------|
G|-----------------------------------------------------------------|
D|-4-4-6-4-4-4-6-4-4-4-6-4-4-4-6-4-2-2-4-4-6-6-2-2-9-9-9-9-9-9-9-9-|
A|-2-2-2-2-2-2-2-2-2-2-2-2-2-2-2-2-0-0-0-0-0-0-0-0-0-0-0-0-0-0-0-0-|
E|-----------------------------------------------------------------|


[Outro]

E
All the young graves filled up
A                        Am
The best all burn out so bright and so fast
E
All the young graves filled up
A                        Am
The best all burn out so bright and so fast
B
Full body high
    A            Am
I'm never coming down
         E
Black me out


------
NOTES:

The timing on the intro riff can be a bit tricky, and from the videos I studied, Laura 
almost never plays it the exact same way twice. I ended up basing it off of this version: 
http://www.youtube.com/watch?v=t5Qx2PNfSp4 If the brief pauses trip you up, add an 
extra stroke or two.

The E and A on the chorus are actually played higher on the neck (on the 7th fret), and 
as power chords. Open chords sound just as good, so don't be afraid to substitute.
Suggest correction
comments
print report bad tab
2 comments total.
0 reply
deasphodel 45 Sep 02, 2014 10:21 AM

perfect :)

0 reply
eliotdotcom21 10 Mar 08, 2016 01:33 PM

Just watched the YouTube video. Looks to me like the second chord in the chorus is actually A5/E, played like this:


e |---X----|
B |---10---|
G |---9----|
D |---7----|
A |---0----|
E |---0----|

guest
You may want to rate the tab now too:
select rating
Wanna post a correction for this tab? Suggest correction