Oops, an error
Loading. Please wait.

Black Me Out Tab

version 1
version 1

Intro

Interactive

28,251 views 129 this week
1 commentread comment
1 2 3 4 5
excellent!
x 21
add to favorites
launch autoscroll
font size
0
reset
how to read this tab
guitar tuner
Tab Pro tools
  • play this tab
  • loop segment
  • change instrument
  • show fretboard
  • metronome
Autoscroll
slow
fast
+/-
esc
set tempo
stop
Contributor
Difficulty
-------------------------------------------------------------------------------
                             Black Me Out - Against Me!
-------------------------------------------------------------------------------
Tabbed by: BOYERxBREAKDOWN

Tuning: Standard

e|---------------------------------------------------------------------------|
B|---------------------------------------------------------------------------|
G|---------------------------------------------------------------------------|
D|--------------------9-9-6-6-4-6-4-2-2-2-2-4-2---9-9-6-6-4-6-4-2------------|
A|-7-7-11-11-11-9-7-7-0-0-0-0-0-0-0-0-0-0-0-0-0-4-0-0-0-0-0-0-0-0------------|
E|-0-0-0--0--0--0-0-0--------------------------------------------------------|

e|---------------------------------------------------------------------------|
B|---------------------------------------------------------------------------|
G|---------------------------------------------------------------------------|
D|-4-4-6-6-4-4-6-6-4-4-6-6-4-4-6-4-2-2-4-4-6-6-4-2-9-9-9-9-9-9-9-9-----------|
A|-2-2-2-2-2-2-2-2-2-2-2-2-2-2-2-2-0-0-0-0-0-0-0-0-0-0-0-0-0-0-0-0-----------|
E|-0-0-0-0-0-0-0-0-0-0-0-0-0-0-0-0-------------------------------------------|
comments
print report bad tab
1 comment total.
0 reply
DixieDead666 wrote on August 3 2014, 02:35 pm

Sounds good to me. Seen them live 2 days ago, they're ****in' amazing!

I want to post or [tab]
guest
You may want to rate the tab now too:
select rating
Please do not post tabs as comments. Select "correction" instead!