Oops, an error
Loading. Please wait.

Black Me Out Tab

version 2
version 2

Intro

Interactive

4,492 views 33 this week
2 commentsread comments
1 2 3 4 5
x 12
add to favorites
launch autoscroll
font size
0
reset
how to read this tab
guitar tuner
Autoscroll
slow
fast
+/-
esc
set tempo
stop
Author
Difficulty
-------------------------------------------------------------------------------
                           Black Me Out - Against Me!
-------------------------------------------------------------------------------
Tabbed by: ExiledAtrocity
E-mail: swmcknight@live.com

Tuning: Standard

e|---------------------------------------------------------------------------|
B|---------------------------------------------------------------------------|
G|---------------------------------------------------------------------------|
D|--------------------9---6----------------------------9---6-----------------|
A|-----11-11-11-9-7-----------9-11-9-7-----9-9-9-7-4-0---0---0-9-11-9-7------|
E|-0-0--------------0---0---0----------5-5-----------------------------------|

e|---------------------------------------------------------------------------|
B|---------------------------------------------------------------------------|
G|---------------------------------------------------------------------------|
D|-4-4-6-2-4-4-6-2-4-4-6-2-4-4-6-2-2---4---6---4-2-9-9-9-9-9-9-9-------------|
A|-2-2-2-2-2-2-2-2-2-2-2-2-2-2-2-2---0---0---0-------------------------------|
E|---------------------------------------------------------------------------|






Was looking for a tab for the intro, and all of them seemed incorrect in one
way or another, in my opinion. Tabbed it out by ear.

Hope you enjoy! :D
Suggest correction
comments
print report bad tab
2 comments total.
0 reply
vitslups 10 Mar 29, 2017 08:43 AM

👍

0 reply
arradyl 10 May 06, 2017 02:21 AM

I agree - the other tabs are ok but this is the most accurate.

guest
You may want to rate the tab now too:
select rating
Wanna post a correction for this tab? Suggest correction