Oops, an error
Loading. Please wait.

Borne On The Fm Waves Of The Heart Bass Tab

version 1
version 1

Whole song

Interactive

5,084 views 6 this week
2 commentsread comments
1 2 3 4 5
excellent!
x 6
add to favorites
launch autoscroll
font size
0
reset
guitar tuner
Tab Pro tools
  • play this tab
  • loop segment
  • change instrument
  • show fretboard
  • metronome
Autoscroll
slow
fast
+/-
esc
set tempo
stop
Contributor
Band: Against Me!
Album: New Wave
Song: Borne on the FM waves of the heart

> = play 8 times
/ = slide up
~ = let ring

Please Rate!

Intro: (0:38) (11 and 12 are eleven and twelve not 1’s and 2’s)

G|------------------------------------------------------------------|
D|------------------------------------------------------------------| 
A|----7-79----7-79------------------------2/12-12-121112-12-12-1211-|
E|-000-----000-----9-9-9119-9-979-9-979-9---------------------------|

Verse: (0:54)

G|--------------------------------------------------------------------|
D|--------------------------------------------------------------------| 
A|-7777777777777779---------------------------------------------------|
E|------------------99999999999999979999999799999997-5555555455555554-|

G|-----------------------------------------------------------------|
D|-----------------------------------------------------------------| 
A|-7777777677777779------------------------------------------------|
E|------------------99999997999999979999999799999997-5555555455555-|

Chorus: (1:24)

> = play 8 times

G|----------------|
D|----------------| 
A|-/777-----------| x3
E|------7>>—9>-5>-|

G|--------------|
D|--------------| 
A|-/777---------|
E|------7>>—5>>-|

Verse 2: (1:55) (Listen for strumming patterns)

G|--------------------------------------------------------------------|
D|--------------------------------------------------------------------| 
A|-7777777777777779------------------------------797------------------|
E|------------------99999997999999979999999799979----5555555455555554-|

G|------------------------------------------------------------------|
D|-------------------------------------------------------7--7-----7-| 
A|-7777777677767967------------------------------797----------------|
E|------------------99999997999999979999999799979----5555--5—-5555--|

Then:
Chorus (2:25)

Bridge: (2:55) x2

G|--------------------------------------------------------------------|
D|--------------------------------------------------------------------| 
A|-7777776777777779---------------------------------------------------|
E|------------------99999997999999979999999799999997-5555555455555554-|

G|--------------------------------------------------------------------|
D|---------------------------------------------------7777777677777776-| 
A|-7777776777777779---------------------------------------------------|
E|------------------99999997999999979999999799999997------------------|

Final Chorus: (3:25)

G|----------------|
D|----------------| 
A|-/777-----------| x3
E|------7>>—9>-5>-|

G|-----------------|
D|-----------9>>---|
A|-/777------------|
E|------7>>>>---5~-|
comments
print report bad tab
2 comments total.
0 reply
royson28 wrote on March 26 2008, 03:36 am

Good job mate. Good to see other people tabbing the great against me! Pretty much perfect tab, keep it up.

0 reply
rlykng08 wrote on July 15 2008, 10:10 am

awesome but surely fast

I want to post or [tab]
guest
You may want to rate the tab now too:
select rating
Please do not post tabs as comments. Select "correction" instead!