Oops, an error
Loading. Please wait.

Borne On The Fm Waves Of The Heart Tab

version 1
version 1

Whole song

Interactive

9,082 views 9 this week
2 commentsread comments
1 2 3 4 5
accurate
x 1
add to favorites
launch autoscroll
font size
0
reset
how to read this tab
guitar tuner
Tab Pro tools
  • play this tab
  • loop segment
  • change instrument
  • show fretboard
  • metronome
Autoscroll
slow
fast
+/-
esc
set tempo
stop
Contributor
Difficulty
intermediate
-------------------------------------------------------------------------------
                             Borne on the FM waves of the heart- Against me!
-------------------------------------------------------------------------------
Tabbed by:Guitaroman10
Tuning:Standard
This is my first tab and its a pretty easy song and its really good

e|-----------------------------------------------------------------------------|
B|-----------------------------------------------------------------------------|
G|-9-9-9-9-9-9-9-9-------------------------------------------------------------|
D|-9-9-9-9-9-9-9-9---11-11-11-11-11-11-11-11--11-11-11-11-11-11-11-11----------|
A|-7-7-7-7-7-7-7-7---11-11-11-11-11-11-11-11--11-11-11-11-11-11-11-11----------|
E|---------------------9--9--9--9--9--9--9--9---9--9--9--9---9--9--9--9--------|

e|-----------------------------------------------------------------------------|
B|-----------------------------------------------------------------------------|
G|-----------------------------------------------------------------------------|
D|-7-7-7-7-7-7-7-7-------------------------------------------------------------|
A|-7-7-7-7-7-7-7-7-------------------------------------------------------------|
E|-5-5-5-5-5-5-5-5-------------------------------------------------------------|

Theres the main riff.

This is the chorus part
e|---------------------------------------------------------------------------|
B|---------------------------------------------------------------------------|
G|---------------------------------------------------------------------------|
D|---------------------------------------------------------------------------|
A|---------------------------------------------------------------------------|
E|---------------------------------------------------------------------------|

e|-----------------------------------------------------------------------------|
B|-----------------------------------------------------------------------------|
G|-----------------------------------------------------------------------------|
D|-5-5-5-5-5-5-5-5-5-5-5-5-5-5-5-5---11-11-11-11-11-11-11-11-------------------|
A|-5-5-5-5-5-5-5-5-5-5-5-5-5-5-5-5---11-11-11-11-11-11-11-11-------------------|
E|-7-7-7-7-7-7-7-7-7-7-7-7-7-7-7-7----9--9--9--9--9--9--9---9------------------|

e|-----------------------------------------------------------------------------|
B|-----------------------------------------------------------------------------|
G|-----------------------------------------------------------------------------|
D|--7-7-7-7-7-7-7-7------------------------------------------------------------|
A|--7-7-7-7-7-7-7-7------------------------------------------------------------|
E|--5-5-5-5-5-5-5-5------------------------------------------------------------|

you can around with this for the background but im not totally sure
e|--7----7----7----7--------5----5----5---5------------------------------------|
B|---9----9----9----9--------7----7----7---7-----------------------------------|
G|----9----9----9----9--------7----7----7---7----------------------------------|
D|-----------------------------------------------------------------------------|
A|-----------------------------------------------------------------------------|
E|-----------------------------------------------------------------------------|
You play this at the end of the chorus too.

you have to fight, to stay in control of the situation
e|-----------------------------------------------------------------------------|
B|-----------------------------------------------------------------------------|
G|-----------------------------------------------------------------------------|
D|--9-9-9-9----11-11-11-11---12-12-12-12---------------------------------------|
A|--7-7-7-7-----7--7--7--7----7--7--7--7---------------------------------------|
E|-----------------------------------------------------------------------------|

Thats about it rock on.
and i know i missed that little bridge thing so dont tell me i missed it, its damn hard 
figure out. but feel free to comment it if you do find it.
and dont comment me saying its bad cause its right and its actually hard to tab songs so 
least i put this up.
comments
We did not receive enough feedback on this tab! Please rate:
print report bad tab
1 2 3 4 5
2 comments total.
0 reply
undegaard wrote on November 4 2007, 08:39 am

7 and 12? what the ****, big hands mate:P

0 reply
Guitaroman10 wrote on January 30 2008, 10:56 pm

sry that riff is played on E and A not A and D

and yeah that is how it is played if your hands will stretch that far cause its just such a huge gap then play it and it will sound right
i can play it easily so maybe youve got some small ass hands :)

I want to post or [tab]
guest
You may want to rate the tab now too:
select rating
Please do not post tabs as comments. Select "correction" instead!