Oops, an error
Loading. Please wait.

Cliche Guevara Tab

version 1
version 1

Whole song

Interactive

3,985 views 1 this week
1 commentread comment
1 2 3 4 5
1 last vote to show rating
add to favorites
launch autoscroll
font size
0
reset
how to read this tab
guitar tuner
Autoscroll
slow
fast
+/-
esc
set tempo
stop
Help us to improve Ultimate-Guitar.com Take our survey!
×
Author
Intro 
e|---------------------------------------------------------------------------| 
B|--8-8-8-8-8-6-6-5----------------------------------------------------------| 
G|--5-5-5-5-5-5-5-5----------------------------------------------------------| 
D|--5-5-5-5-5-5-5-5----------------------------------------------------------| 
A|---------------------------------------------------------------------------| 
E|---------------------------------------------------------------------------| 

Verse 
e|---0------------------------------------------------------------------------| 
B|---1------------------------------------------------------------------------| 
G|---0------------------------------------------------------------------------| 
D|---2-----------------------------------3------------------------------------| 
A|---3-----------------------------------3------------------------------------| 
E|---------------------------------------1------------------------------------| 
And we'll keep ourselves in a place where it's easy to hold onto. 

e|---0----------------------------------3------------------------------------| 
B|---1----------------------------------3------------------------------------| 
G|---0----------------------------------0------------------------------------| 
D|---2----------------------------------0------------------------------------| 
A|---3----------------------------------2------------------------------------| 
E|--------------------------------------3------------------------------------| 
the last threats came and went, this is the way that wars are played. 

e|---0------------------------------------------------------------------------| 
B|---1------------------------------------------------------------------------| 
G|---0------------------------------------------------------------------------| 
D|---2-----------------------------------3------------------------------------| 
A|---3-----------------------------------3------------------------------------| 
E|---------------------------------------1------------------------------------| 
always heading for a front,heading for a front, we go into the obscurity 

e|---0----------------------------------3------------------------------------| 
B|---1----------------------------------3------------------------------------| 
G|---0----------------------------------0------------------------------------| 
D|---2----------------------------------0------------------------------------| 
A|---3----------------------------------2------------------------------------| 
E|--------------------------------------3------------------------------------| 
of an easy to pass on feeling that objection is so cliche. 

Chorus 
e|---0----------------------------------3------------------------------------| 
B|---1----------------------------------3------------------------------------| 
G|---0----------------------------------0------------------------------------| 
D|---2----------------------------------0------------------------------------| 
A|---3----------------------------------2------------------------------------| 
E|--------------------------------------3------------------------------------| 
a new way on a new way on 

e|-------------------------------------0-------------------------------------| 
B|-------------------------------------1-------------------------------------| 
G|-------------------------------------0-------------------------------------| 
D|---3---------------------------------2-------------------------------------| 
A|---3---------------------------------3-------------------------------------| 
E|---1-----------------------------------------------------------------------| 
a new way on a new way on 

Break 
e|---------------------------------------------------------------------------| 
B|--8-8-8-8-8-6-6-5----------------------------------------------------------| 
G|--5-5-5-5-5-5-5-5----------------------------------------------------------| 
D|--5-5-5-5-5-5-5-5----------------------------------------------------------| 
A|---------------------------------------------------------------------------| 
E|---------------------------------------------------------------------------| 

Verse 
e|---0------------------------------------------------------------------------| 
B|---1------------------------------------------------------------------------| 
G|---0------------------------------------------------------------------------| 
D|---2-----------------------------------3------------------------------------| 
A|---3-----------------------------------3------------------------------------| 
E|---------------------------------------1------------------------------------| 
so can your pop sensibilities sing me the end of the world? 

e|---0----------------------------------3------------------------------------| 
B|---1----------------------------------3------------------------------------| 
G|---0----------------------------------0------------------------------------| 
D|---2----------------------------------0------------------------------------| 
A|---3----------------------------------2------------------------------------| 
E|--------------------------------------3------------------------------------| 
turn gunshots and mortar blasts into a metaphor of how we are all the same. 

e|---0------------------------------------------------------------------------| 
B|---1------------------------------------------------------------------------| 
G|---0------------------------------------------------------------------------| 
D|---2-----------------------------------3------------------------------------| 
A|---3-----------------------------------3------------------------------------| 
E|---------------------------------------1------------------------------------| 
well there's a lot of things that should be said,so we're hammering six strings 

e|---0----------------------------------3------------------------------------| 
B|---1----------------------------------3------------------------------------| 
G|---0----------------------------------0------------------------------------| 
D|---2----------------------------------0------------------------------------| 
A|---3----------------------------------2------------------------------------| 
E|--------------------------------------3------------------------------------| 
machine gun in audible voices this is the party we came for. 

Chorus 
e|---0----------------------------------3------------------------------------| 
B|---1----------------------------------3------------------------------------| 
G|---0----------------------------------0------------------------------------| 
D|---2----------------------------------0------------------------------------| 
A|---3----------------------------------2------------------------------------| 
E|--------------------------------------3------------------------------------| 
a new way on a new way on 

e|-------------------------------------0-------------------------------------| 
B|-------------------------------------1-------------------------------------| 
G|-------------------------------------0-------------------------------------| 
D|---3---------------------------------2-------------------------------------| 
A|---3---------------------------------3-------------------------------------| 
E|---1-----------------------------------------------------------------------| 
a new way on a new way on 
cgfc 
Different Part 
e|--0----------------------3--------------------------0----------------------| 
B|--1----------------------3--------------------------1----------------------| 
G|--0----------------------0--------------------------0----------------------| 
D|--2----------------------0---------3----------------2----------------------| 
A|--3----------------------2---------3----------------3----------------------| 
E|-------------------------3---------1---------------------------------------| 
we stand in amazement of motion In a world thats constantly revolving 

e|--0----------------------3----------------------------------0--------------| 
B|--1----------------------3----------------------------------1--------------| 
G|--0----------------------0----------------------------------0--------------| 
D|--2----------------------0--------------------3-------------2--------------| 
A|--3----------------------2--------------------3-------------3--------------| 
E|-------------------------3--------------------1----------------------------| 
with plans of invasion and arms races racing we rock to the new sensation. 

Chorus 
e|---0----------------------------------3------------------------------------| 
B|---1----------------------------------3------------------------------------| 
G|---0----------------------------------0------------------------------------| 
D|---2----------------------------------0------------------------------------| 
A|---3----------------------------------2------------------------------------| 
E|--------------------------------------3------------------------------------| 
a new way on a new way on 

e|-------------------------------------0-------------------------------------| 
B|-------------------------------------1-------------------------------------| 
G|-------------------------------------0-------------------------------------| 
D|---3---------------------------------2-------------------------------------| 
A|---3---------------------------------3-------------------------------------| 
E|---1-----------------------------------------------------------------------| 
a new way on a new way on 
Suggest correction
Give kudos to tab author, rate the tab!
1 2 3 4 5
comments
print report bad tab
1 comment total.
0 reply
Robbus 10 Sep 21, 2006 07:16 PM

i found the chord progressions for the chorus and middle part didn't sound correct

guest
You may want to rate the tab now too:
select rating
Wanna post a correction for this tab? Suggest correction