Oops, an error
Loading. Please wait.

Dont Lose Touch Bass Tab

version 1
version 1

Whole song

Interactive

7,055 views 18 this week
4 commentsread comments
1 2 3 4 5
excellent!
x 12
add to favorites
launch autoscroll
font size
0
reset
guitar tuner
Tab Pro tools
  • play this tab
  • loop segment
  • change instrument
  • show fretboard
  • metronome
Autoscroll
slow
fast
+/-
esc
set tempo
stop
Contributor
Difficulty
intermediate
----------------------------------------------------------------------------
			  Don't Lose Touch - Against Me                    
-----------------------------------------------------------------------------

Tabbed By : Eric Shechtman
e-mail: sheckdog520@aol.com

Tuning: Standard



Intro: (5x)

G|------7-----7-----7-----7-----7-----7-----7------7-----------------------|
D|-------------------------------------------------------------------------|
A|---5-----5-----5-----5-----5-----5-----5-----5---------------------------|
E|-------------------------------------------------------------------------|

Verse:

G|-------12-----12-----12------12------12-----12------12-----12------------|
D|-------------------------------------------------------------------------|
A|---10-----10-----10------10-----10------10-----10------10----------------|
E|-------------------------------------------------------------------------|
     "You're caught up    in      an    argument........."

G|------7-----7-----7-----7-----7-----7-----7------7-----------------------|
D|-------------------------------------------------------------------------|
A|---5-----5-----5-----5-----5-----5-----5-----5---------------------------|
E|-------------------------------------------------------------------------|
     "You're so lost in modern art."

G|-------14-----14-----14------14-----14-----14-------17-----16------------|
D|-------------------------------------------------------------------------|
A|---12-----12-----12------12-----12------12-----15------14----------------|
E|-------------------------------------------------------------------------|
     "...all                            And you will find again"

G|-------12-----12-----12------12-----12----12-------12-----12-------------|
D|-------------------------------------------------------------------------|
A|---10-----10-----10------10-----10-----10-----10------10-----------------|
E|-------------------------------------------------------------------------|
                                                   "Don't lose...

(2x)
G|------7-----7-----7-----7-----7-----7-----7------7-----------------------|
D|-------------------------------------------------------------------------|
A|---5-----5-----5-----5-----5-----5-----5-----5---------------------------|
E|-------------------------------------------------------------------------|
     "...touch"

(He does this in the second part of the verse)
G|------7-----7-----7-----7-----7-----7-----7---5--------------------------|
D|-------------------------------------------------7-----------------------|
A|---5-----5-----5-----5-----5-----5-----5---------------------------------|
E|-------------------------------------------------------------------------|
     "S.O.S. texted by a cellphone"

(He also does it on the tens and twelves)
G|-------12-----12-----12------12-----12----12-------12----10--------------|
D|--------------------------------------------------------------12---------|
A|---10-----10-----10------10-----10-----10-----10-------------------------|
E|-------------------------------------------------------------------------|
     "...we're taking ourselves too seriously"

(Then he repeats the rest of the verse normally)

Chorus: (2x)
G|-------------------------------------------------------------------------|
D|-------------------------------------0020-020-020-02--0020-020-020-02----|
A|---------2-------232-------------2233------------------------------------|
E|---333333-3-33333----333333333333----------------------------------------|

(One more verse and then chorus)

Ending note:
G|------------|
D|---0--------|
A|------------|
E|------------|


This is my first tab. I hope it helps anyone who actually needs it. Against Me!
is starting to gain popularity so hopefully some people will actually read this!
============================================================================
comments
print report bad tab
4 comments total. Showing first comments.
0 reply
WashBurn! wrote on May 24 2006, 07:01 pm

excellent tab.

0 reply
peavey_bass wrote on November 4 2006, 09:19 am

good tab, against me rocks!!!

0 reply
johnny butt wrote on January 27 2008, 12:05 am

great tab! hope you don't mind if i use this as a basis for my power tab

I want to post or [tab]
guest
You may want to rate the tab now too:
select rating
Please do not post tabs as comments. Select "correction" instead!