Oops, an error
Loading. Please wait.

Holy Shit bass

2,213 views 3 this week
1 commentread comment
1 2 3 4 5
1 last vote to show rating
add to favorites
×
Save as Personal and add changes to this tab that will be seen only by you. Learn more ›
×
You can save this tab as Personal to edit and correct it or add notes. All changes will be seen only by you. Learn more »
launch autoscroll
font size
0
reset
guitar tuner
edit
Autoscroll
slow
fast
+/-
esc
set tempo
stop
Author
Difficulty
Come in after acoustic guitar does its thing.
Intro
G|--------------------------------|
D|--------------------------------|
A|--------------------------------|
E|1--1-0--0-5--0-55--1--1-0--0-5.-|

Verse
G|-----------------------------------------------------------------|
D|-----------------------------------------------------------------|
A|--------------------------12-14-12-14-12-14-12-14-12-14-12-14-12-|
E|1--1-0--0-5--0-55--1--1-0----------------------------------------|

Verse (the rest is the same as the intro)

Chorus(let all notes ring until the next one is played)
G|-----------------------|
D|-----------------------|   x4 (on 4th time finish with E0~)
A|-----------------------|
E|3--3-5--5-1--0-1-0-1-0-|

Verse x2 (again its just like the intro)

Chorus
G|-------------------------|
D|-------------------------|
A|-------------------------|  x4
E|7\3--3-5--5-1--0-1-0-1-0-|

Bridge/bass solo kinda bit(straight after chorus)
G|-----------------------------------------------------------|
D|---------------12-----------------------12-----------------|
A|---------12-14----14-12-14-12-----12-14----14-12-14-12-----|
E|0~---0~-----------------------12-----------------------12\-|

Chorus til end. finish on E0 letting it ring.

Pretty straight foward. Some bits might need a bit adjusting so feel free to comment. thanks.
Suggest correction
Creating personal tab
Creating personal tab
You can edit any tab online and save it as your Personal.

You can edit, replace or remove any tab part or add personal notes – all changes will be seen only by you.

Personal tabs can be accessed anytime from any device, even offline.
Learn more »
Give kudos to tab author, rate the tab!
1 2 3 4 5
comments
print report bad tab
1 comment total.
0 reply
gNomadic 10 Feb 19, 2014 08:00 PM

Close. bass solo def doesn't have a 12 fret low e in it.

guest
You may want to rate the tab now too:
select rating
Wanna post a correction for this tab? Suggest correction