Oops, an error
Loading. Please wait.

Justin bass

820 views 1 this week
1 commentread comment
1 2 3 4 5
1 last vote to show rating
add to favorites
×
Save as Personal and add changes to this tab that will be seen only by you. Learn more ›
×
You can save this tab as Personal to edit and correct it or add notes. All changes will be seen only by you. Learn more »
launch autoscroll
font size
0
reset
guitar tuner
edit
Autoscroll
slow
fast
+/-
esc
set tempo
stop
Author
Difficulty
Song: Justin
Artist: Against Me!
Album: Searching For A Former Clarity

Intro

G| -7----5--------|
D| -----------5---|
A| ---------------|
E| ---------------|  x2

Verse/Interlude

G| ------------------------------------------------|
D| -------4-----------2----------------------------|
A| -5-5-5---5-5-3-3-3---3-3-------0-----------0----|
E| ------------------------3-3-3---3-3-3-3-3---3-3-|

He messes around with it, sometimes he just stays on the root notes and sometimes he 
so ya just play it like you want to. also second time the interlude comes its slower so 
out for that

Chorus

G| ----------------------------------------------------|
D| ----------------------------------------------------|
A| -5-5-5-5-/7-/9-10-10-10-10-/7-/9-10-10-10-10-/7-/9--|
E| ----------------------------------------------------| x2

Outro (with the clapping)

G| -7-7-7-7-7-7-5-5-5-5-5-5-------------------------|
D| -------------------------5-5-5-5-5-5-5-5-5-5-5-5-|
A| -------------------------------------------------|
E| -------------------------------------------------| x2

and than just

G| -7-7-7-7-7-7-7-7-7-7-7-7-7-7-7-7-7-7-|
D| -------------------------------------|
A| -------------------------------------|
E| -------------------------------------|

yup pretty simple.

            
            
Suggest correction
Creating personal tab
Creating personal tab
You can edit any tab online and save it as your Personal.

You can edit, replace or remove any tab part or add personal notes – all changes will be seen only by you.

Personal tabs can be accessed anytime from any device, even offline.
Learn more »
Give kudos to tab author, rate the tab!
1 2 3 4 5
comments
print report bad tab
1 comment total.
0 reply
Crasher19 10 Jan 21, 2008 01:37 PM

Nice tabs

guest
You may want to rate the tab now too:
select rating
Wanna post a correction for this tab? Suggest correction