Oops, an error
Loading. Please wait.

Ocean bass

3,334 views 3 this week
no commentswrite comment
1 2 3 4 5
x 3
add to favorites
×
Save as Personal and add changes to this tab that will be seen only by you. Learn more ›
×
You can save this tab as Personal to edit and correct it or add notes. All changes will be seen only by you. Learn more »
launch autoscroll
font size
0
reset
guitar tuner
edit
Autoscroll
slow
fast
+/-
esc
set tempo
stop
Author
Difficulty
Intro  x1
G|------          G|--4.-4.-4.-----|
D|--0-4-          D|---------------|
A|2-----  x16     A|2--------------|
E|------          E|---------------|

Verse  x3
G|------------------------------------------------------------|
D|--0-4----0-4----0-4----0-4----4-7----4-7----4-7----4-7------|
A|2------2------2------2------5------5------5------5----------|
E|------------------------------------------------------------|

G|------------------------------------------------------------|
D|--2-5----2-5----2-5----2-5----------------------------------|
A|4------4------4------4------2-2-4--2-2-4--2-2-4-2-0-2-0-----|
E|------------------------------------------------------------|

Chorus  x1
G|--------------------------------------4-4-4-2-2-2-4-2-0-----|
D|2-2-2-0-2-2-0-2-2-2-0-4-2-0-4-2-2-2-2-----------------------|
A|------------------------------------------------------------|
E|------------------------------------------------------------|

After Chorus bit  x1
G|--------------------------------------------4.-4.-4.-|
D|-----------------------------------------------------|
A|2-2-4-2--0--2-2-4-2--0--2-2-4-2--0--2-2-4-2----------|
E|-----------------------------------------------------|

Verse  x2
Chorus  x1
After Chorus bit  x1

Interlude (part1)  x2
G|--------------------------------------------------------|
D|----------------------0-2-4-----------------------4-2---|
A|2-2-4--2-2-4--2-2-4-2-------2-2-4--2-2-4--2-2-4-2-----4-|
E|--------------------------------------------------------|

G|-------------------------------------------------------------|
D|------------------------2-4-2--------------------------4-2---|
A|2-2-4--2-2-4--2-2-4-2-4-------4--2-2-4--2-2-4--2-2-4-2-----4-|
E|-------------------------------------------------------------|

Interlude (part2) x2
G|-------------------------|
D|-------------------------|
A|2-2-2-4-5-4-202020-2-4-2-|
E|-------------------------|

Interlude (part3) There is an ocean in my soul......
G|------------------------|
D|------------------------| (however many times)  
A|-(22)-222-44-2-222-44-2-|   
E|------------------------|

Outro (Probably not quite right)
G|-----------|
D|-----------|   sumthin like that, it has alot of fills to it and hard to
A|---7>------|   hear.
E|5>-----7>--|

Ive updated this tab so its better now. This is how he plays 
the new wave dvd. ive fixed up chorus which is now pretty 
spot on. Still not sure about the ending. please rate and 
comment.

            
            
Suggest correction
Creating personal tab
Creating personal tab
You can edit any tab online and save it as your Personal.

You can edit, replace or remove any tab part or add personal notes – all changes will be seen only by you.

Personal tabs can be accessed anytime from any device, even offline.
Learn more »
Give kudos to tab author, rate the tab!
1 2 3 4 5
comments
print report bad tab
guest
You may want to rate the tab now too:
select rating
Wanna post a correction for this tab? Suggest correction