Oops, an error
Loading. Please wait.

Piss Vinegar tab

1,630 views 1 this week
3 commentsread comments
1 2 3 4 5
x 3
add to favorites
×
Save as Personal and add changes to this tab that will be seen only by you. Learn more ›
×
You can save this tab as Personal to edit and correct it or add notes. All changes will be seen only by you. Learn more »
launch autoscroll
font size
0
reset
how to read this tab
guitar tuner
edit
Autoscroll
slow
fast
+/-
esc
set tempo
stop
I keep checking the site to see if anymore New Wave material is up, but you guys are
Heh... I messed around with P&V, and this is what I came up with... I'm sure its not
and maybe missing some stuff... but hey! At least its a start... Someone'll touch it up 
repost it, right? RIGHT?!

Hope it helps, guys.

...

"Piss & Vinegar" by Against Me!

|INTRO
|-----------------------|
|-----------------------|
|------------9-9--------|
|--9-9--7-7--9-9--9-9---|
|--9-9--7-7--7-7--9-9---|
|--7-7--5-5-------7-7---| x2
|
|
|---12--10--9h10p9-10-9-----------------------------------------------|
|-----------------------12/14-12-10-12-10-9-10-9-7-7h8p7h8p7----------|
|------------------------------------------------------------7--------|
|---------------------------------------------------------------------|
|---------------------------------------------------------------------|
|---------------------------------------------------------------------|
|


|VERSE
|------------------|
|------------------|
|----------9-------|
|--9---7---9---9---|
|--9---7---7---9---|
|--7---5-------7---|


|CHORUS THING
|------------------|
|------------------|
|------2---4---9---|
|--5---2---4---9---|
|--5---0---2---7---|
|--3---------------|

            
            
Suggest correction
Creating personal tab
Creating personal tab
You can edit any tab online and save it as your Personal.

You can edit, replace or remove any tab part or add personal notes – all changes will be seen only by you.

Personal tabs can be accessed anytime from any device, even offline.
Learn more »
Give kudos to tab author, rate the tab!
1 2 3 4 5
comments
print report bad tab
3 comments total.
0 reply
Kenpo1990 10 Dec 30, 2007 02:02 PM

Great job on the lead but just one little
thing....

----12--10--9h10p9-10-9--
---{good
-----12/14-12-10-12-8-10
-8-7-7h8p7h8p7{9 is an
8
-----
-----
-
-----
-----
-

0 reply
Kenpo1990 10 Dec 30, 2007 02:02 PM

Great job on the lead but just one little
thing....

----12--10--9h10p9-10-9--
---{good
-----12/14-12-10-12-8-10
-8-7-7h8p7h8p7{9 is an
8
-----
-----
-
-----
-----
-

0 reply
Elfuego 10 May 11, 2012 12:40 PM

common, your comments are just... how to say... euh... brilliant! :D
gotta look to make it on GP sometime... so I guess..?

guest
Wanna post a correction for this tab? Suggest correction